Red Hot Chili Peppers

Red Hot Chili Peppers - By The Way (live) (2) guitar tab

Title: By the Way Jam (live)

Album: Live in Hyde Park Disc 1

Artist: Red Hot Chili Peppers

Tabbed by: Stratocast24

E-mail: nicholls505@comcast.net

| / slide up

| slide down

| h hammer-on

| p pull-off

| ~ vibrato

| harmonic

| x Mute note

(3:17 - last chorus of By the Way)

F C Dm

e|--1--1--1-1---------------------x-----5-5-----5-5---5---5------------------|

B|--1--1--1-1--x--5--5--6-6--5-5--x-----6-6--6--6-6-x-5h6-6--x-x-------------|

G|--2--2--2-2--x--5--5--5-5--5-5--x--7--7-7--7--7-7-x-5h7-7--x-x-------------|

D|--3--3--3-3--x--5--5--5-5--5-5--x--7--7-7--7--7-7-x-----7--x-x-------------|

A|--x--x--x-x--x--3--3------------x--5-------5--5-5-x--------x-x-------------|

E|--1--1--1-1----------------------------------------------------------------|

F C Am Bb

e|-----1-1-------------------------------------------------------------------|

B|-----1-1-x--5--5-5--5-----5-5------------8-8----------x--------------------|

G|-----2-2-x--5--5-5--5--5------5--------7---------7-7--x--------------------|

D|--3--3-3-x--5--5-5--5--7--------7----8-------8-8------x--------------------|

A|--3------x-------------7----------7--8-------8--------x--------------------|

E|--1------------------------------------------------------------------------|

(3:34)

Dm Bb F C

e|---------------------------------------------------------------------------|

B|----6-----6-6-6--x-x--10-10--8---8--8--8---x--6-6-6-6------6---------------|

G|----7--7--7-7-7--x-x--10-10--9---9--9--9---x--7-7-7-7----7-7---------------|

D|----7--8--8-8-8--x-x--10-10--10--10-10-10--x--7-7-7-7--8-8-8---------------|

A|--5-5--8--8-8-8--x-x--8--8---10--10-10-10--x--5-5-5-5--8-8-----------------|

E|-------6--6-6-6--------------8------8------------------6-------------------|

e|---------------------------------------------------------------------------|

B|--10-10-10-10--8--8--8--8---x-x----6----6-6-6--10-10------x----------------|

G|--10-10-10-10--9--9--9--9---x-x----7--7-7-7-7--10-10------x----------------|

D|--10-10-10-10--10-10-10-10--x-x----7--8-8-8-8--10-10------x----------------|

A|--8--8--8--8---10-10-10-10--x-x--5-5--8-8-8-8--8--8--10---x----------------|

E|--------------------------------------6--------------8---------------------|

e|---------------------------------------------------------------------------|

B|--6-6-6-----x---10-10--8---x--6--6---6--x--10-10--8---x--6-6--6-x----------|

G|--7-7-7-----x---10-10--9---x--7--7---7--x--10-10--9---x--7-7--7-x----------|

D|--7-7-7--8--x---10-10--10--x--7--7---8--x--10-10--10--x--7-7--8-x----------|

A|------5--8--x---8--8---10--x--5--5---8--x--8--8---10--x--5-5--8-x----------|

E|---------6-----------------------------------------------------------------|

Switch from Neck to Bridge pickup for solo.

e|-----------------------------|

B|--10--10-10--8---------------|

G|--10--10-10--9-----9h10p9----|

D|--10--10-10--10----10--------|

A|--8---8--8---10-10-----------|

E|----------------8------------|

(4:04)

e|---------------------------------------------------------------------------|

B|----------------------------------------------------------13-13--13-13-----|

G|-----------------10---10--12b14-12-10-12-10-12-10-10-12/14-----------------|

D|-------10h12-12-----12-----------------------------------------------------|

A|--10h12--------------------------------------------------------------------|

E|---------------------------------------------------------------------------|

e|---------------------------------------------------------------------------|

B|--15--13--10-10-10--10-13b15r13-10-10--10--11p10-11p10---------------------|

G|-------------------------------------------------------10-10---------------|

D|---------------------------------------------------------------------------|

A|---------------------------------------------------------------------------|

E|---------------------------------------------------------------------------|

e|---------------------------------------------------------------------------|

B|---------------------------------------------------------------------------|

G|--10--12b14r-12-10--9-9-10--10--12b14r12-10--12b14r12-10-9-10-10-----------|

D|---------------------------------------------------------------------------|

A|---------------------------------------------------------------------------|

E|---------------------------------------------------------------------------|

e|---------------------------------------------------------------------------|

B|---------------------------------------------------------------------------|

G|--12b14r12-10--12b14-12-10-9-10--10p9--------------------------------------|

D|--------------------------------------12-12--------------------------------|

A|--------------------------------------------10/12-12-10--8-8-------------|

E|---------------------------------------------------------------------------|

e|---------------------------------|

B|---------------------------------|

G|---------------------------------|

D|--------10-----------------------|

A|--10/12-----12/1312-12---------|

E|---------------------------------|

(4:24)

e|--------------5------------------------------------------------------------|

B|------x-------6--6-6-6--x-x--10--10-10-10-10-10h11----8--8--8---x-x--------|

G|------x---x---7--7-7-7--x-x--10--10-10-10-10-10----x--9--9--9---x-x--------|

D|----x---x---0----8-8-8--x-x--10--10-10-10-10-10----x--10-10-10--x-x--------|

A|--5-x------------8-8-8--x-x--8---8--8--8--8--8-----x--10-10-10--x-x--------|

E|-----------------6-6-6--------------------------------8--8--8--------------|

Switch back to neck pickup.

e|---------------------------------------------------------------------------|

B|--6--6-6-6--6-6--6-6-6--10--10-10-10-10-10-10h11-x-8--8--8-----------------|

G|--7--7-7-7--7-7--7-7-7--10--10-10-10-10-10-10----x-9--9--9---x-x-----------|

D|--7--7-7-7--7-7--8-8-8--10--10-10-10-10-10-10----x-10-10-10--x-x-----------|

A|--5--5-5-5--5-5--8-8-8--8---8--8--8--8--8--8-----x-10-10-10--x-x-----------|

E|-----------------6-6-6-----------------------------8--8--8-----------------|

e|--------5-5-5-5-----------------------------10-10--------------------------|

B|----6-6-6-6-6-6---------x-x--10-10-10-10-10-10-10--------------------------|

G|----7-7-7-7-7-7--7-7-7--x-x--10-10-10-10-10-10-10---9--9---x-x-------------|

D|----7-7-7-7-7-7--8-8-8--x-x--10-10-10-10-10-10-10-x-10-10--x-x-------------|

A|--5-5-5-5-5-5-5--8-8-8--x-x--8--8--8--8--8--8--8--x-10-10--x-x-------------|

E|-----------------6-6-6----------------------------x-8--8---x-x-------------|

e|---------------------------------------------------------------------------|

B|-----6-6-6-6-6-6-----------10--10-10-10-10-10-10------------6~-------------|

G|-----7-7-7-7-7-7--7-7-7----10--10-10-10-10-10-10---9--------7~-------------|

D|-----7-7-7-7-7-7--8-8-8-x--10--10-10-10-10-10-10---10-------7~-------------|

A|--5--5-5-5-5-5-5--8-8-8-x--8---8--8--8--8--8--8----10----------------------|

E|------------------6-6-6--------------------------8-------------------------|

Get this song at:  amazon.com sheetmusicplus.com

Share your thoughts

0 Comments found