Red Hot Chili Peppers

Red Hot Chili Peppers - By The Way Intro guitar tab

Song: By The Way

Artist: Red Hot Chili Peppers

tabbed by: Joe Mahurin

Riff 1

E--------------------------------------------------|

B--------------------------------------------------|

G-5-5-5-5-5-5-5-5-5-5-5-5-5-5-5-5-2-2-2-2-2-2-2-2--|

D-3-3-3-3-3-3-3-3-2-2-2-2-2-2-2-2-2-2-2-2-2-2-2-2--|

A---------------------------------0-0-0-0-0-0-0-0--|

E--------------------------------------------------|

{ ^play twice^ }

Repeat Riff 1, add Riff 2 at end

Riff 2

E-----------------|

B-----------------|

G---9-9-7-7-------|

D-----------------|

A-----------------|

E-----------------|

There?s a slide in the intro that sounds like the guitar.

It?s flea sliding, so u might think this is off, but I think

it?s pretty damn close. Anyways, gimme time and I?ll try to

get the rest of the song to you. Lemme know know how this

works, or any corrections e-mail me at joemeister411@hotmail.com

Get this song at:  amazon.com

Share your thoughts

0 Comments found