Red Hot Chili Peppers

Red Hot Chili Peppers - By The Way (at Last The Real Tab!!) bass tab

There Are loads of by the way tab on here. But most are miles out!!!!

I've checked in many places and this is the correct tab.

Tuning : D,A,D,G (Drop D)

Intro

G|-1717171717171717-1717171717171717----------------------------------|

D|-1515151515151515-1414141414141414-14141414141414141414141414141414-|

A|-----------------------------------12121212121212121212121212121212-| X2

D|--------------------------------------------------------------------|

G|------------------------------------|

D|-33333333---------------------------|

A|----------33333333-0000000000000000-|

D|------------------------------------|

G|-1717171717171717-1717171717171717----------------------------------|

D|-1515151515151515-1414141414141414-14141414141414141414141414141414-|

A|-----------------------------------12121212121212121212121212121212-|

D|--------------------------------------------------------------------|

G-|----------------------------------|----------------------------------|

D-|---------------3---x--------------|-------------3--------------------|

A-|---------3h5---------3h5-----0h3--|---------3h5-------0-0h3---x------|

D-|-0---0----------------------------|-0---0-----------------------0h3--|

X4

G-|----------------------------------|----------------------------------|

D-|-------------3-----x--------------|----------------------------------|

A-|---------3h5---------3h5-----0h3--|---------3-5---5---5-6-6-6-6-6-6--|

D-|-0---0----------------------------|-0---0----------------------------|

Chorus

G|-------------------------------------------------------------------|

D|-3333333-3/1010101010101010-121212121212121212121212121212-1210----|

A|--------3------------------------------------------------------1210|

D|-------------------------------------------------------------------|

G|-------------------------------------------------------------------|

D|----------1010101010101010-7777777-7-8888--------------------------|

A|-88888888----------------------------------------------------------|

D|-------------------------------------------------------------------|

G-|----------------------------------|----------------------------------|

D-|---------------3---x--------------|-------------3--------------------|

A-|---------3h5---------3h5-----0h3--|---------3h5-------0-0h3---x------|

D-|-0---0----------------------------|-0---0-----------------------0h3--|

X4

G-|----------------------------------|----------------------------------|

D-|-------------3-----x--------------|----------------------------------|

A-|---------3h5---------3h5-----0h3--|---------3-5---5---5-6-6-6-6-6-6--|

D-|-0---0----------------------------|-0---0----------------------------|

G|-1717171717171717-1717171717171717----------------------------------|

D|-1515151515151515-1414141414141414-14141414141414141414141414141414-|

A|-----------------------------------12121212121212121212121212121212-| X2

D|--------------------------------------------------------------------|

G|------------------------------------|

D|-33333333---------------------------|

A|----------33333333-0000000000000000-| X2

D|------------------------------------|

G-|----------------------------------|----------------------------------|

D-|---------------3---x--------------|-------------3--------------------|

A-|---------3h5---------3h5-----0h3--|---------3h5-------0-0h3---x------|

D-|-0---0----------------------------|-0---0-----------------------0h3--|

X4

G-|----------------------------------|----------------------------------|

D-|-------------3-----x--------------|----------------------------------|

A-|---------3h5---------3h5-----0h3--|---------3-5---5---5-6-6-6-6-6-6--|

D-|-0---0----------------------------|-0---0----------------------------|

G|--------------------------------------------------|

D|-3-3-33--3/10-10-101010-12-12-1212-12-10----------|

A|--------3-------------------------------12-121012-|

D|--------------------------------------------------|

G|------------------------------------------|

D|----------1010101010101010-7777777-7-8888-|

A|-88888888---------------------------------|

D|------------------------------------------|

G|---------------------------------------------------------|

D|-3-3-33--3/10-1010-101010-8-12-12-1212-12-12121212-14-12-|

A|-------3-------------------------------------------------|

D|---------------------------------------------------------|

G|------------------------------------------|

D|----------1010101010101010-7777777-7-8888-|

A|-88888888---------------------------------|

D|------------------------------------------|

Outro No Bass

Great Song, And Fun To Play

Thanks

Tom

Get this song at:  amazon.com

Share your thoughts

0 Comments found