Red Hot Chili Peppers

Red Hot Chili Peppers - Backwoods guitar tab

Author/Artist: Red Hot Chili Peppers

Title: Backwoods

Album: The Uplift Mofo Party Plan

Transcribed by: Chris Valente

Email: RedHotMetallica@aol.com

That's All I have to say.

And for the thrid verse fuck around in F# with a wah.

Intro/Verse

------------------------------------------------------------------------------

------------------------------------------------------------------------------

------------------------------------------------------------------------------

--4--x--4-4--4-4--x-4-4--4--x--4-4--4-4--x--4-4-------------------------------

--4--x--4-4--4-4--x-4-4--4--x--4-4--4-4--x--4-4-------------------------------

--2--x--2-2--2-2--x-2-2--2--x--2-2--2-2--x--2-2-------------------------------

Chorus

--------------------|---------------------------------------------------------

--------------------|------------10-10-10-10--10-x-10-x-10-10-----------------

---------------2-4--|-------------9--9--9--9---9-x--9-x--9--9-----------------

--4--4--2--2---2-4--|---------------------------------------------------------

--4--4--2--2---0-2--|---------------------------------------------------------

--2--2--0--0--------|---------------------------------------------------------

Gtr 2 Or something like that.

Bridge

-----------------------------------------------------------------14v----------

------------------------------------------------------------------------------

------------------------------------------------------------------------------

------------------------------------------------------------------------------

-0h2-0h2-0h2-0h2-0h2-0h2-0h2-0h2-0h2-0h2-0h2-0h2-0h2-0h2-0h2-0h2--------------

------------------------------------------------------------------------------

^Feedback^

Solo Bm Dorian

------------------------------------------------------------------------------

--7------7----7-----7----------------------7-7-------7-7-------7-------7-7----

--9bbbbb-9bbb-9bbbb-9bbb-------------------7-7-------7-7-------7-------7-7----

-------------------------7h9p7h9-------9\-/7-7-9p7---7-7-9p7---7-9p7---7-7-9--

---------------------------------7h8h9-------------9---------9-------9--------

------------------------------------------------------------------------------

--------------------7b--------------------------------------------------------

-10b-7-10-7------------10-7---------------------------------------------------

------------9-7-------------7h9p7---------------------------------------------

----------------9-----------------9vvvvv--------------------------------------

------------------------------------------------------------------------------

------------------------------------------------------------------------------

^Feedback^

Outro Lick

------------------------------------------------------------------------------

------------------------------------------------------------------------------

------------------------------------------------------------------------------

--4-4-x-x-4-4-----------------------------------------------------------------

--4-4-x-x-4-4-----------------------------------------------------------------

--2-2-x-x-2-2-----------------------------------------------------------------

Get this song at:  amazon.com

Share your thoughts

0 Comments found