Red Hot Chili Peppers

Red Hot Chili Peppers - Baby Appeal (3) guitar tab

Red Hot Chili Peppers:Baby Appeal

Album: The RHCP

Transcribed by: Yaneey

Email: yaneey@hotmail.com

standard tuning

intro/verse 1:

--2-2-2--------------2-2-2---------------------------------------------------|

--2-2-2--------------2-2-2---------------------------------------------------|

-----------------------------------------------------------------------------|

---------2-4--2-4-----------2-4-2-4------------------------------------------|

-----------------------------------------------------------------------------|

---------------------------------------2-2-0-2-0-2-0-2-0-2-------------------|

verse 2:

--5-5-5--------------5-5-5---------------------------------------------------|

--5-5-5--------------5-5-5---------------------------------------------------|

-----------------------------------------------------------------------------|

---------5-7--5-7-----------5-7-5-7------------------------------------------|

-----------------------------------------------------------------------------|

--------------------------------------5-5-3-5-3-5-3-5-3-5--------------------|

(While I'm away, boy,I'm afraid not I've got no time to flick and talk)

chorus ("but here's a funky fact..."):

-------------------5---5-----|-------------------------5-5-------------------|

-----8-8-8-8-8-----5---7-----|-------8-8-8-8-8-----8-8-5-5-------------------|

-----7-7-7-7-7-----4---6-----|-------7-7-7-7-7-7/9-7-7-----------------------|

-----6-6-6-6-6-----5---7-----|-----------------------------------------------|

-----7-7-7-7-7-----5---7-----|-----------------------------------------------|

-----0-0-0-0-0-----3---5-----|-----------------------------------------------|

other version

solo:

-----------------------------------------------------------------------------|

-----------------------------------------------------------------------------|

-----------------------------------------------------------------------------|

-----------------------------------------------------5-----------------------|

--------7-5-4-5-4--------------------------7-5-4-5-4-------------------------|

---17-----------3--0-0-x-x-0-0--x-x---0------------------------------------|

On the city streets,

I got the tunes in my pocket

I'll play the Chili Pepper so the public can rock

Excuse me mister, won't you hear my thought?

I play in a band, yeah, we're called the Red Hots

While I'm away, boy,

I'm afraid not I've got no time to flick and talk

But this baby rocked out on the spot

She was a shakin' and a kickin' and that did a bit of tot

Her pop said no, but I just couldn't stop

The killer had a case of tod the rock

But here's a funky fact that I know is real,

The Red Hots have baby appeal

They dig a funky speil, they'll make some speil

I say the Peppers have baby appeal

The funk mobile is the one we wheel I'm overjoyed, we have baby appeal

We serve those tots in the funk mobile

I'm overjoyed, we have baby appeal

We stop the fire, we quench the heat

We groove the buttocks walking out in the street 'cos that's when in the store when who

we meet?

On a hop skip jump up a baby beat

She was a shakin' and a kickin' those itty bitty feet

The next thing you know was she got out of her bleat

Five thousand babies walkin' out in the street

Well, that's a serious sight for me and golly gee wizz!

I just can't tell ya how much we did

Rockin' right out for those itty bitty girls, right out

But here's a funky fact that I know is real,

The Red Hots have baby appeal

They dig a funky speil, they'll make some speil

I say the Peppers have baby appeal

The funk mobile is the one we wheel I'm overjoyed, we have baby appeal

We serve those tots in the funk mobile I'm overjoyed, we have baby appeal, so get down!

the tunes in my pocket...

Baby appeal...

Rock out!...

Play the chili, play the chili, play the chili...

Yes, we're called the Red...Hots...

On the city streets,

I got the tunes in my pocket

I'll play the Chili Pepper so the public can rock

Excuse me mister, won't you hear my thought?

I play in a band, yeah, we're called the Red Hots

While I'm away, boy,

I'm afraid not I've got no time to flick and talk

But this baby rocked out on the spot

She was a shakin' and a kickin' and that did a bit of tot

Her pop said no, but I just couldn't stop

The killer had a case of tod the rock But here's a funky fact that I know is real,

The Red Hots have baby appeal

They dig a funky speil, they'll make some speil

I say the Peppers have baby appeal

The funk mobile is the one we wheel I'm overjoyed, we have baby appeal

We serve those tots in the funk mobile

I'm overjoyed, we have baby appeal

Get this song at:  amazon.com sheetmusicplus.com

Share your thoughts

0 Comments found