Red Hot Chili Peppers

Red Hot Chili Peppers - Areoplane guitar tab

Intro:

|--3~~------3~~------5~~----6----------------------------|

|--6~~------3~~------3~~-------------3------------5~~----|

|--3~~------3~~------3~~-----------------3--------5~~----|

|--3~~------5~~------3~~--------------------------5~~----|

|--3~~------3~~------3~~--------------------------3~~----|

|--------------------------------------------------------|

|--6~~----5--------------3----3~~------------------------|

|--3~~-----------6------------3~~----------3~~------5~~--|

|--3~~---------------3--------5~~------5---3~~------5~~--|

|--3~~------------------------5~~----------3~~------5~~--|

|--3~~------------------------3~~----------3~~------3~~--|

|--------------------------------------------------------|

Chorus:

|-6-6-6-6-6-6-6-6-6-6-6-6-6-6-6-6-6-6-6-6-6-6-6-6-6-6-6-6-6-6-6-6|

|-6-6-6-6-6-6-6-6-6-6-6-6-6-6-6-6-5-5-5-5-5-5-5-5-5-5-5-5-5-5-5-5|

|-5-5-5-5-5-5-5-5-5-5-5-5-5-5-5-5-5-5-5-5-5-5-5-5-5-5-5-5-5-5-5-5|

|----------------------------------------------------------------|

|----------------------------------------------------------------|

|----------------------------------------------------------------|

Repeat X6

Verse:

|--18---x--18------18---x--18------18--x--18------18---x--18---|

|--18---x--18------18---x--18------17--x--17------17---x--17---|

|--------------------------------------------------------------|

|--------------------------------------------------------------|

|--------------------------------------------------------------|

|--------------------------------------------------------------|

Repeat X8

Bridge:

|----------------------------------------------------------------|

|-6-6-6-6-6-6-6-6-6-3-3-3-3-3-3-3-3-3-3-3-3-3-3-3-3---3-3-3-3-3-3|

|-3-3-3-3-3-3-3-3-3-3-5-5-5-5-5-5-5-3-3-3-3-3-3-3-3---3-3-3-3-3-3|

|-3-3-3-3-3-3-3-3-3-3-3-3-3-3-3-3-3-3-3-3-3-3-3-3-3-5-5-5-5-5-5-5|

|----------------------------------------------------------------|

|----------------------------------------------------------------|

Solo:

|---------------------------17^-----17--15----15-----------------|

|--18^----(18)------18--15-----------------18----18^-------------|

|-------------------------------------------------------17--17---|

|----------------------------------------------------------------|

|----------------------------------------------------------------|

|----------------------------------------------------------------|

|----------------------------------------------------------------|

|----------------------------------------------------------------|

|--15------------------------------------------------------------|

|-------17--15--17---15--17--------------------------------------|

|---------------------------15---15--15--------15^------(15)~~~~-|

|----------------------------------------------------------------|

|----------------------------------------------------------------|

|----------------------------------------------------------------|

|----------------------------------------------------------------|

|----------------------------------------------------------------|

|--15^~~~--15^~~~--15^~~~--15^~~~--15^~~~--15^~~~--15^~~~--15^~~-|

|----------------------------------------------------------------|

|----------------------------------------------------------------|

|----------------------------------------------------------------|

|----------------------------------------------------------------|

|----------------------------------------------------------------|

|--15--13--15^---(16)---15^---15----------15--13^--------13-15-13|

|---------------------------------15--13-----------13-15---------|

|----------------------------------------------------------------|

|----------------------------------------------------------------|

|----------------------------------------------------------------|

|----------------------------------------------------3--5--3--5--|

|------------13------13-15-13--------------3--1-1-3--------------|

|--15--13-15-----15------------15-1^---3------------------------|

|-----------------------------------------------------------6----|

|--------------5-----------------6--8^----(8)------6--6--8-------|

|--3-----3-5^-----3--5--3---57----------------------------------|

|-----5----------------------------------------------------------|

|----------------------------------------------------------------|

|----------------------------------------------------------------|

|--8^----(8)--6--8-8^--8--6--8--6---6----------------------------|

|----------------------------------8--8-6-8-6---6----------------|

|---------------------------------------------7---75-3-5-3--3-3-|

|-----------------------------------------------------------5----|

|----------------------------------------------------------------|

|----------------------------------------------------------------|

|---------------------------3-x----------------------------------|

|----------------------5-3--3-x-5--x-x-x-x-5--5^--5~-------------|

|----3-5------------3--5-3------5--x-x-x-x-5--5^--5~-5^--5-3--4~-|

|--5-------5-3--5-5----------------------------------------------|

|----------------------------------------------------------------|

|----------------------------------------------------------------|

|----------------------------------------------------------------|

|----------------------------------------------------------------|

|-----------------------------------10---------------------------|

|--5--3--5--3--5~~~~~~~~~~~---------9----------------------------|

|-----------------------------------10---------------------------|

|----------------------------------------------------------------|

Get this song at:  amazon.com

Share your thoughts

0 Comments found