Red Hot Chili Peppers

What It Is (aka Nina's Song) Bass Tabs



More from Red Hot Chili Peppers

Red Hot Chili Peppers Tabs
Red Hot Chili Peppers Chords
Red Hot Chili Peppers Bass
Red Hot Chili Peppers Lyrics



----------------------------------PLEASE NOTE---------------------------------
This file is the author's own work and represents their interpretation of the
song. You may only use this file for private study, scholarship, or research.
------------------------------------------------------------------------------
Red hot chilie peppers
What it is (aka nina's song)
Album; out in L.A
p=pop
s=slap
t=strum down
b=band
I made the correction of the original version it was missing some mute
and the solo and the verse.
x2 x2
G-|--------------------|-----|-------------------|--9//11-|
D-|--------------------|-----|-------------------|--9//11-|
A-|--------------------|-----|-------------------|--------|
E-|-O-x-0--0--x--0-0---|h1p0-|-0-x-0--0--x--0-0--|--------|
s s s s s s s s s s s s s s s t
b
G-|-----------------------|-------------|
D-|-----------------------|-5---5-------|
A-|-----------------------|-------------|
E-|-0-x-0--0--x--0-0-0h5h7|---x---5---7-|
s s s s s s s s p s p s s


G-|-----------------------|---------------|
D-|-----------------------|-5---5---------|
A-|-----------------------|---------------|
E-|-0-x-0--0--x--0-0-0h5h7|---x---5-5-7-7-|
s s s s s s s s p s p s s s s

variation:
G-|----------------------------|----------------------------|---------------|
D-|----------------------------|----------------------------|-5---5---------|
A-|----------------------------|----------------------------|---------------|
E-|-0-x-0--0--x--0-0-xx--3--5--|-0-x-0--0--x--0-0-xx--3--5--|---x---5-5-7-7-|
s s s s s s s ss s s s s s s s s s ss s s p sp s s s s
Verse:
G-|------------------------|-9---------------------|
D-|-o--9-----------5-----5-|-------------5-----5-o-|
A-|-o----------------5h7---|---------------5h7---o-|
E-|-----0-x-0h5h7----------|--0-x-0h5h7------------|
ps s s p s p ps s s p s p

Chorus:
G-|-----------------|---------------------|
D-|-o---------------|-------------------o-|
A-|-o---------------|-------------------o-|
E-|--7-3--0-0-3-5-7-|--7-3--0-0-7-7-5-3---|
s s s s s s s s s s s s s s s

solo:
G-|----------------------5h9|--------------------------|Same to the verse
D-|-o------------5-----5----|-------------5-----5-5h7--|but very fast:)
A-|-o--------------5h7------|---------------5h7--------|
E-|---0-x-0h5h7-------------|--0-x-0h5h7---------------|
s s s p s p p s s s p s p p

Brought to you by the BassMasta - http://www.tabs-database.com



Get this song at amazon.com      Ebay     Ringtones Ringtones  


Learn to play: Songwriting, Piano, Harmonica, Guitar
More Red Hot Chili Peppers lyrics available at Muzikum

Related Red Hot Chili Peppers Bass Tabs

Battle Ship bass
Strip My Mind bass
Tell Me Baby (live) bass
Behind The Sun bass
Dani Califoina bass
Good Time Boys bass
By The Way (at Last The Real Tab!!) bass
Quixoticelixer bass
Over Funk bass
Paralell Universe(right Position) bass
Religion bass
F U bass
Midnight bass
What It Is (aka Nina's Song) bass
The Power Of Equality bass
Stone Cold Bush bass
Give It Away bass
Parrallel Universe bass
Havana Affair bass
Californication (5 String) bass


Guitar Tabs









All tabs are property and copyright of their owners. All tabs provided for educational purposes only. Privacy Policy, DMCA