Red Hot Chili Peppers

Warlocks Bass Tabs



More from Red Hot Chili Peppers

Red Hot Chili Peppers Tabs
Red Hot Chili Peppers Chords
Red Hot Chili Peppers Bass
Red Hot Chili Peppers Lyrics



Song: Warlocks

Artist: Red Hot Chili Peppers

Album: Stadium Arcadium



Notation legend:



x -> mute.

\ -> slide up. \ It can be after or before the note, like 1h3,

/ -> slide down. | but if there's no enought space it can be

h -> hammer on. | over or down, like G|-13-...

p -> pull off. / D|--h-...

~ -> let ring.

S -> slap.

+ + -> the rhythm of the song, generally 4x4. If there are 2 digits notes

or there's no enough space, I lengthen it,

from (+ + ...) to (+ + ...)

|------| -> repeat this a number of times, for example |3-3-3-3| x4

repeats 3-3-3-3 four times.



Verse 1:



Em

+ + + + + + + + + + + + + + + + +

G|----|----------------|----------------|----------------|----------------|

D|----|----------------|----------------|----------------|----------------|

A|----|575---57--------|575---57--------|575---57--------|757---57--------|

E|---7|-----7--0------7|-----7--0------7|-----7--0------7|-----7--03-5-6-7|



+ + + + + + + + + + + + + + + +

G|----------------|----------------|----------------|----------------|

D|----------------|----------------|----------------|---------5--75--|

A|575---57--------|575---57--------|575---57--------|575---57---7--7-|

E|-----7--0------7|-----7--0------7|-----7--0------7|-----7---------7|



+ + + + + + + + + + + + + + + +

G|----------------|------------97--|----------------|----------------|

D|----------------|-------------p--|----------------|----------------|

A|575---57--------|575---57--------|575---57--------|575---57--------|

E|-----7-----0---7|-----7--0------7|-----7--0------7|-----7--0---5-7-|

S



Chorus 1:



Em C Am G

+ + + + + + + + + + + + + + + +

G|----------------|----------------|----------------|----------------|

D|22222-xx2-x5-4-x|---------5-4-2--|----------------|----------------|

A|----------------|33333-xx3------x|-/--------5-----|--------5---5---|

E|----------------|----------------|35555-xx58-7-5-x|3---3-----------|



Em C Am G

+ + + + + + + + + + + + + + + +

G|----------------|--------2-------|----------------|----------------|

D|22222-xx2x-5-4-x|---------5-4-2--|----------------|----------------|

A|----------------|33333-xx-------x|-/--------5-----|--------5---5---|

E|----------------|----------------|35555-xx58-7-5-x|3---3-----------|



Verse 2:



Em

+ + + + + + + + + + + + + + + +

G|----------------|----------------|----------------|--------7---76--|

D|----------------|----------------|----------------|-------6---7--5-|

A|575---57--------|575---57--------|575---57--------|575---5--57-----|

E|-----7--0------7|-----7--0------7|-----7--0------7|-----7----------|



+ + + + + + + + + + + + + + + +

G|----------------|----------------|----------------|-------------97-----------------|

D|----------------|----------------|----------------|---------------97-5-5-7-5-------|

A|575---57--------|575---57--------|575---57--------|5-7-5--------\_/----------------|

E|-----7--0------7|-----7--0------7|-----7--0------7|--------------|-----------------|

| P P P P P

quickly!



+ + + + + + + + + + + + + + + +

G|----------------|----------------|----------------|----------------|

D|----------------|----------------|----------------|----------------|

A|575---57--------|575---57--------|575---57--------|575---57--------|

E|-----7--0------7|-----7--0--3--5-|-----7--0------7|-----7--0-------|



Chorus 2:



Em C Am G

+ + + + + + + + + + + + + + + +

G|----------------|----------------|----------------|----------------|

D|22222-xx2-x5-4-x|---------5-4-2--|----------------|----------------|

A|----------------|33333-xx3------x|-/--------5-----|--------5---5---|

E|----------------|----------------|35555-xx58-7-5-x|3---3-----------|



Em C Am G

+ + + + + + + + + + + + + + + +

G|----------------|--------2-------|----------------|----------------|

D|22222-xx2x-5-4-x|---------5-4-2--|---------p------|----------------|

A|----------------|33333-xx-------x|-/------75------|--------5---5---|

E|----------------|----------------|35555-xx---7-5-x|3---3-----------|



Verse 3:



+ + + + + + + + + + + + + + + +

G|----------------|----------------|----------------|----------------|

D|----------------|---------5-7-9--|-----------5----|----------------|

A|575---57--------|575---57--------|575---57--------|575---57--------|

E|-----7--0------7|-----7--0-------|-----7--0------7|-----7--0-------|

P P P P



Bridge:



C Bm

+ + + + + + + + + + + + + + + +

G|----------------|----------------|----------------|----------------|

D|----------------|----------------|----------------|---------0002200|

A|3333333333333333|3333333333333333|2222222222222222|222222222-------|

E|----------------|----------------|----------------|----------------|



C Bm

+ + + + + + + + + + + + + + + +

G|----------------|----------------|----------------|--------------------------------|

D|----------------|---2233553322---|----------------|--------------------------------|

A|3333333333333333|355----------553|2222222222222222|2--/141414--141414141414141414--|

E|----------------|----------------|----------------|--------------------------------|



Verse 4:



Em

+ + + + + + + + + + + + + + + +

G|----------------|----------------|----------------|--7-------------|

D|----------------|----------------|----------------|76-------7-5----|

A|575---57--------|575---57--------|575---57-------5|-------56-------|

E|-----7--0------7|-----7--0------7|-----7--0-------|-----57--------7|



+ + + + + + + + + + + + + + + +

G|----------------|----------------|----------------|----------------|

D|----------------|----------------|--5-------------|------7---8---9-|

A|575---57--------|575---57--------|57----57--------|57--------------|

E|-----7--0------7|-----7--0------7|-----7--0------7|----------------|



+ + + + + + + + + + + + + + + +

G|----------------|----------------|----------------|----------------|

D|----------------|----------------|----------------|----------------|

A|575---57--------|575---57--------|575---57--------|575---55--------|

E|-----7--0------7|-----7--0------7|-----7--0------7|-----7--75-3----|



Chorus 3:



Em C Am G

+ + + + + + + + + + + + + + + +

G|----------------|----------------|----------------|----------------|

D|22222-xx2-x5-4-x|---------5-4-2--|----------------|----------------|

A|----------------|33333-xx3------x|-/--------5-----|--------5---5---|

E|----------------|----------------|35555-xx58--75-x|3---3-----------|



Em C Am G

+ + + + + + + + + + + + + + + +

G|----------------|---------2------|----------------|----------------|

D|22222-xx25-4-2-x|--------5-52----|----------------|----------------|

A|----------------|33333-xx-----3-x|-/--------57-5--|--------5---5---|

E|----------------|----------------|35555-xx58----7x|3---3-----------|



Em C Am G

+ + + + + + + + + + + + + + + +

G|----------------|----------------|----------------|----------------|

D|22222-xx2x-5-4-x|---------5-4-2--|----------------|----------------|

A|----------------|33333-xx3------x|-/--------5-----|--------5---5---|

E|----------------|----------------|35555-xx58-7-5-x|3---3-----------|



Em C Am G

+ + + + + + + + + + + + + + + +

G|----------------|---2------------|----------------|----------------|

D|22222-xx22-5-4-x|-----5-4-5-4-2--|----------------|----------------|

A|----------------|33x------------x|-/--------5-----|--------5---5---|

E|----------------|----------------|35555-xx58-7-5-x|3---3-----------|



Em

+ + + +

G|----------------|

D|----------------|

A|----------------|

E|--0~------------|



__ _ __ __ _____ _____ _____

/ | / | / | / `\ / ___/ / __ / ( __/

/ |/ | / /|| / /) / // / / // \ \

/ /| /|| / /^|| / /|| //___ / / // ___) )

/ / | / || / / || / / || / / / ^^/ / /

^^^^^^^^^^^^^^^^^^^^^^^^^^^^^^^^^^^^^^^^^^^^^^^^^Added by tabs-database.com and our distinguished partners
Get this song at amazon.com      Ebay     Ringtones Ringtones  


Learn to play: Songwriting, Piano, Harmonica, Guitar
More Red Hot Chili Peppers lyrics available at Muzikum

Related Red Hot Chili Peppers Tabs

Give It Away Live tabs
By The Way (live) tabs
Special Secret Song Inside tabs
Save The Population tabs
Dr Funkenstein tabs
Under The Bridge (acoustic) tabs
Good Time Boys tabs
Out In La tabs
Behind The Song tabs
Minor Thing (3) tabs
Sex Rap tabs
Nevermind tabs
Did I Let You Know tabs
Funky Monks Bass tabs
Naked In The Rain tabs
Search And Destroy tabs
Rolling Sly Stone tabs
Right On Time tabs
Warlocks tabs
Me And My Friends tabs


Guitar Tabs









All tabs are property and copyright of their owners. All tabs provided for educational purposes only. Privacy Policy, DMCA