Red Hot Chili Peppers

Walkabout Tabs



More from Red Hot Chili Peppers

Red Hot Chili Peppers Tabs
Red Hot Chili Peppers Chords
Red Hot Chili Peppers Bass
Red Hot Chili Peppers Lyrics



------------------------------------------------------------------------------

walkabout - red hot chili peppers

------------------------------------------------------------------------------

Tabbed by:angel

Email:webmaster at tabs-database.com.com



Tuning:standard



I've been searching a long time for the solo on the intro and a good version of the

so at last a decided to tab it out myself. Be careful when playing the solo, it's played

heavy distortion and some other effects, maybe wah-wah or something. Enjoy



intro:

both guitars play the first riff:

---------------------------------------------------------------------------|

---------------------------------------------------------------------------|

-9--7----------------9--7-----------------9--7-----------------------------|

------5--7b(8)r7-5-------5--7b(8)r7p5-0--------5--7b(9)r7-5----------------|

------------------0-----------------------------------------0--------------|

---------------------------------------------------------------------------|





|--------------------------- |--|

|-------------------------------------------------------------------|

|-0--3--5-5br--3/7--------------------------------------------------|

|-------------------------------------------------------------------|



then one guitar play this( fast with lot of distortion)

e|-------------------------7-8-10-12b--------------------------------------|

B|--------------------10p8-------------------------------------------------|

G|-----------7p5-9p7-------------------------------------------------------|

D|----5-7p5----------------------------------------------------------------|

A|5-7----------------------------------------------------------------------|

E|-------------------------------------------------------------------------|



e|---------------------------------------------------------------------------|

B|---------------------------------------------------------------------------|

G|---------------------------------------------------------------------------|

D|---5-7br-5-7/9-------------------------------------------------------------|

A|-7-------------------------------------------------------------------------|

E|---------------------------------------------------------------------------|



e|---------------------------------------------------------------------------|

B|-----10p8------------------------------------------------------------------|

G|----------9p7--------------------------------------------------------------|

D|---5-----------7p5---------------------------------------------------------|

A|-7-----------------7p5-----------------------------------------------------|

E|-------------------------7-5-7---------------------------------------------|



1.guitar

e|---------------------------------------------------------------------------|

B|---------------------------------------------------------------------------|

G|-9-7-----------------------------------------------------------------------|

D|-----5-7br-5---------------------------------------------------------------|

A|-------------0---3---------------------------------------------------------|

E|---------------------------------------------------------------------------|

| 2. guitar

e|-12-10-----------8~-6~-----------------------------------------------------|

B|-------8-10br-8------------------------------------------------------------|

G|---------------------------------------------------------------------------|

D|---------------------------------------------------------------------------|

A|---------------------------------------------------------------------------|

E|---------------------------------------------------------------------------|



Verse:

e|7-7-7-x-x-x-x-7------------------------------------------------------------|

B|5-5-5-x-x-x-x-5-8-7-7-7-x-x-x-x-7-x-x-7-7----------------------------------|

G|5-5-5-x-x-x-x-5-5-5-5-5-x-x-x-x-5-x-x-5-5----------------------------------|

D|---------------------------------------------------------------------------|

A|---------------------------------------------------------------------------|

E|---------------------------------------------------------------------------|



e|7-7-7-x-x-x-x-7-8-7--------------------------------------------------------|

B|5-5-5-x-x-x-x-5-5-5-7-7-7-x-x-x-x-7-x-x-7-7--------------------------------|

G|5-5-5-x-x-x-x-5-5-5-5-5-5-x-x-x-x-5-x-x-5-5--------------------------------|

D|---------------------------------------------------------------------------|

A|---------------------------------------------------------------------------|

E|---------------------------------------------------------------------------|



it's mostly this two riff in the verse



chorus:

e|---------------------------------------------------------------------------|

B|-----1------------1--------------------------------------------------------|

G|-2-0---------2-0-----------------------------------------------------------|

D|--------2-1---------2-1-4-3------------------------------------------------|

A|---------------------------------------------------------------------------|

E|---------------------------------------------------------------------------|



back to verse again



over the next solo it's another guitar in the background:

e|--------------------------------5/-----------------------------------------|

B|--------------------------------5/-----------------------------------------|

G|-5p2----------------------------5/-----------------------------------------|

D|-----5-2--------------------2-5--------------------------------------------|

A|---------5-5b-3-5b-3-0-3-5b------------------------------------------------|

E|---------------------------------------------------------------------------|



intrudelude:

play this riff to times:

e|---------------------------------------------------------------------------|

B|---------------------------------------------------------------------------|

G|10-9-8-x-7-7--10-10--9-9-8-x-7-7-------------------------------------------|

D|9--8-7-x-6-6---9--9--8-8-7-x-6-6-------------------------------------------|

A|11-9-9-x-7-7--11-11--9-9-9-x-7-7-------------------------------------------|

E|9----7---------9--9------7-------------------------------------------------|



solo(2. guitar plays verse riff):

e|---------------------------------12b-10-12-12~-----15b-12----------12-17b\-|

B|----------------------------------------------------------15-12-15---------|

G|9br-7h9-9------7-9b-------7-9b-7---------------7-9-------------------------|

D|----------7-10-------7-10--------------------------------------------------|

A|---------------------------------------------------------------------------|

E|---------------------------------------------------------------------------|



e|------------------------------------13b-10-12-10-12b-10--------------------|

B|----------------------------------8---------------------12b-10-12-10-------|

G|---------------7-9b-7-9b-7-9b-7-9------------------------------------12b-9-|

D|7-9b-7-9b-7-9b-------------------------------------------------------------|

A|---------------------------------------------------------------------------|

E|---------------------------------------------------------------------------|



e|---------------------------------------------------------------------------|

B|8--------------------------------------------------------------------------|

G|--9b-7-----------------------7-9b-7----------------------------------------|

D|-------7b-5------------5-7/9--------9-7-9~---------------------------------|

A|------------7-5b-7-5b-7----------------------------------------------------|

E|---------------------------------------------------------------------------|



and than back to verse again



outro:

e|---------------------------------------------------------------------------|

B|--------------------------------7b-x-x-7b-x-x-7b-x-x-7-7-7b-x-x-7b-x-x-7b--|

G|5-x-x-5-x-x-5-x-x-5-x-x-5-x-x-5----------------------5-5-------------------|

D|4-x-x-4-x-x-4-x-x-4-x-x-4-x-x-4--------------------------------------------|

A|---------------------------------------------------------------------------|

E|---------------------------------------------------------------------------|



e|------------------------------------------------7b-------------------------|

B|-----7b-x-x-7b-x-x-7b-x-x-7-7--7b-x-x-7b-x-x-7b---------------5b-----5b----|

G|--------------------------5-5-----------------------------5-7----5-7-------|

D|---------------------------------------------------------------------------|

A|3h5b-------------------------------------------------3h5b------------------|

E|---------------------------------------------------------------------------|



e|----------------------------------------10-12b-----------------------------|

B|----7b----5b-----5b-----7b--------10-12------------------------------------|

G|5-7----5-7--5-7----5-7------7--9b-10-12------------------------------------|

D|----------------------------7--9b------------------------------------------|

A|---------------------------------------------------------------------------|

E|---------------------------------------------------------------------------|

play this riff 8 times

e|7-7-7-7-7-7-7--------------------------------------------------------------|

B|5-5-7-5-5-5-5-5-7-7-7-7-8-8-8-8--------------------------------------------|

G|5-5-5-5-5-5-5-5-5-5-5-5-5-5-5-5--------------------------------------------|

D|---------------------------------------------------------------------------|

A|---------------------------------------------------------------------------|

E|---------------------------------------------------------------------------|



e|7---------7---5h7p5--------------------------------------------------------|

B|5--7--8---5---------5------------------------------------------------------|

G|5--5--5---5----------------------------------------------------------------|

D|---------------------------------------------------------------------------|

A|---------------------------------------------------------------------------|

E|---------------------------------------------------------------------------|



| / slide up

| \ slide down

| h hammer-on

| p pull-off

| ~ vibrato

| + harmonic

| x Mute note

=============================================================================Added by tabs-database.com and our distinguished partners
Get this song at amazon.com      Ebay     Ringtones Ringtones  


Learn to play: Songwriting, Piano, Harmonica, Guitar
Also available at Muzikum: Red Hot Chili Peppers - Walkabout lyrics

Related Red Hot Chili Peppers Tabs

The Abbey Road tabs
I Could Die For You (3) tabs
We Believe tabs
Hey tabs
Road Trippin Tab Nd Lyrics tabs
Cabron Tabs tabs
Dani California (w/solo) tabs
This Velvet Glove (3) tabs
Subterranean Homesick Blues (solo) tabs
Can't Stop tabs
What Is Soul (2) tabs
Savior Bass tabs
Sir Psycho Sexy tabs
Otherside Giutar Tab tabs
Search And Destroy tabs
River Of Avalon tabs
Baby Appeal tabs
Baby Appeal (3) tabs
Pretty Little Ditty tabs
Party On Your Pussy tabs


Guitar Tabs









All tabs are property and copyright of their owners. All tabs provided for educational purposes only. Privacy Policy, DMCA