Red Hot Chili Peppers

Velvet Glove Tabs



More from Red Hot Chili Peppers

Red Hot Chili Peppers Tabs
Red Hot Chili Peppers Chords
Red Hot Chili Peppers Bass
Red Hot Chili Peppers Lyrics

---------------------------------------------
Song:   Velvet Glove
Artist: Red Hot Chili Peppers
Tab By: ??
Email:  la_laker83@hotmail.com
---------------------------------------------

Intro
   Dm     C     Bb   Dm     C     Bb   Dm   C     Bb
e|----------------|-----------------|-3--1-0--------|
B|----1-3---1-3---|----1-3---1-3----|---------1-1/3-|
G|-2------2-------|-2------2--------|---------------|
D|--------------3-|--------------3--|---------------|
A|----------------|-----------------|---------------|
E|----------------|-----------------|---------------|
                                                                              
    Dm   C    Bb
e|---5--3-0-----------------------------------------|
B|-----------1-3--3-33--3---------------------------|
G|--------------------------------------------------|
D|--------------------------------------------------|
A|--------------------------------------------------|
E|--------------------------------------------------|

Verse
   Dm  C  Bb Dm   C  Bb          Dm    C   Bb 
e|--5--5--5--|----------10-10--|--------------------|
B|-----------|--10--10--10-10--|--10--10--10--------|
G|-----------|-----------------|--------------------|
D|-----------|-----------------|--------------------|
A|-----------|-----------------|--------------------|
E|-----------|-----------------|--------------------|

   Dm C   Bb      --etc.
e|-----------10-10---|---------------10-------------|
B|--10--10---10-10---|--10--10--10---10-------------|
G|-------------------|------------------------------|
D|-------------------|------------------------------|
A|-------------------|------------------------------|
E|-------------------|------------------------------|
 
e|--------------|--10-10-------------|--10-10-------|
B|--10--10--10--|--10-10-10--10--10--|--10-10--10---|
G|--------------|--------------------|--------------|
D|--------------|--------------------|--------------|
A|--------------|--------------------|--------------|
E|--------------|--------------------|--------------|

e|------------------------|-------------------------|
B|----1-3---1-3-----------|----1-3---1-3------------|
G|-2------2---------------|-2------2----------------|
D|--------------3--3-3-3--|--------------3--3-3-3-3-|
A|------------------------|-------------------------|
E|------------------------|-------------------------|

e|--3--1-0----------------|--5--3-0-------10-10-----|
B|----------1--3---3--3-3-|---------1-3---10-10-10--|
G|------------------------|-------------------------|
D|------------------------|-------------------------|
A|------------------------|-------------------------|
E|------------------------|-------------------------|

e|--10-10-------10-10-----|--10-10------------------|
B|--10-10-10----10-10-10--|--10-10-10---------------|
G|------------------------|-------------------------|
D|------------------------|-------------------------|
A|------------------------|-------------------------|
E|------------------------|-------------------------|

e|------------10-10-------10-10------|---10-10------|
B|---10-10-10-10-10--10---10-10--10--|---10-10--10--|
G|-----------------------------------|--------------|
D|-----------------------------------|--------------|
A|-----------------------------------|--------------|
E|-----------------------------------|--------------|

Chorus
   Dm             C      Bb
e|--8---5-5--8---8-8-5-5--13--10-10--13--10-10------|
B|--------------------------------------------------|
G|--------------------------------------------------|
D|--------------------------------------------------| x3
A|--------------------------------------------------|
E|--------------------------------------------------|

e|----10--8-8--10-10--8-8---5-----------------------|
B|--------------------------------------------------|
G|--------------------------------------------------|
D|--------------------------------------------------|
A|--------------------------------------------------|
E|--------------------------------------------------|

Interlude
  Dm    C    Bb                Dm   C    Bb
e|----8-10-----------------|----8-10----------------|
B|-10-----8-10-10-10-10-10-|-10------8-10-10-10-10--|
G|-------------------------|------------------------|
D|-------------------------|------------------------|
A|-------------------------|------------------------|
E|-------------------------|------------------------|

Verse
e|----------|--------10-10-|----------|-------10-10-|
B|-10-10-10-|-10-10--10-10-|-10-10-10-|-10-10-10-10-|
G|----------|--------------|----------|-------------|
D|----------|--------------|----------|-------------|
A|----------|--------------|----------|-------------|
E|----------|--------------|----------|-------------|

e|-------------10-10-------|------------------------|
B|-10--10--10--10-10---x3--|-10--10--10-------------|
G|-------------------------|------------------------|
D|-------------------------|------------------------|
A|-------------------------|------------------------|
E|-------------------------|------------------------|

Interlude
e|--------------------------------------------------|
B|-7-7--7-7--7-7--7-7--10-10--10-10--10-10--10-10---|
G|--------------------------------------------------|
D|--------------------------------------------------|
A|--------------------------------------------------|
E|--------------------------------------------------|

e|--------------------------------------------------|
B|-12-12--12-12--12-12--12-12--15-15-15/17--15------|
G|--------------------------------------------------|
D|--------------------------------------------------|
A|--------------------------------------------------|
E|--------------------------------------------------|

Interlude
e|---------------13---15----------------------------|
B|--10-10---15------------13-15--15-15---15-15------|
G|--------------------------------------------------|
D|--------------------------------------------------|
A|--------------------------------------------------|
E|--------------------------------------------------|

e|----13--15-17-------------------------------------|
B|---------------13--15---15------------------------|
G|--------------------------------------------------|
D|--------------------------------------------------|
A|--------------------------------------------------|
E|--------------------------------------------------|

Verse - play 3 times
e|-10-10-|-------10-10-|-------10-10-|-------10-10--|
B|-10-10-|-10-10-10-10-|-10-10-10-10-|-10-10-10-10--|
G|-------|-------------|-------------|--------------|
D|-------|-------------|-------------|--------------|
A|-------|-------------|-------------|--------------|
E|-------|-------------|-------------|--------------|

e|-----------------------------------|--------------|
B|--10--10-10-10-10-10---------------|-10-10-10-10--|
G|-----------------------------------|--------------|
D|-----------------------------------|--------------|
A|-----------------------------------|--------------|
E|-----------------------------------|--------------|
                                                       
e|-----10-10---------------|
B|------------10-----------|
G|-------------------------|
D|-------------------------|
A|-------------------------|
E|-------------------------|


---------------------------------------------
(c) Strum It: A Guitar Tab Site (http://www.geocities.com/strum22_99)
Get this song at amazon.com      Ebay     Ringtones Ringtones  


Learn to play: Songwriting, Piano, Harmonica, Guitar
More Red Hot Chili Peppers lyrics available at Muzikum

Related Red Hot Chili Peppers Tabs

Universally Speaking tabs
Knock Me Down tabs
I Could Die For You (5) tabs
Transcending tabs
Readymade tabs
Punk Rock Classic tabs
Around The World (Version 2) tabs
I Like Dirt tabs
Sweet Home Alabama (live) tabs
Hyde Park Intro (live) tabs
Emit Remmus tabs
Mercy Mercy tabs
Can't Stop 2.0 + Lyrics tabs
Tear (3) tabs
Blue Monday tabs
21st Century Bass tabs
Out In L.a. tabs
Parallel Universe tabs
Pea tabs
Dont Forget Me tabs


Guitar Tabs









All tabs are property and copyright of their owners. All tabs provided for educational purposes only. Privacy Policy, DMCA