Red Hot Chili Peppers

Under The Bridge (not Live) Bass Tabs



More from Red Hot Chili Peppers

Red Hot Chili Peppers Tabs
Red Hot Chili Peppers Chords
Red Hot Chili Peppers Bass
Red Hot Chili Peppers Lyrics




Before second verse
G-----------------------
D-----------------------
A-----------------------
E-0-0-0-0-0-0-0-0-------

First Chorus
G-----------9------------------------------9-----------------------
D-11------9--------9-------------11------9-------9-----------------
A--9--7-7------7-----7-9-9-9-9----9--7-7-----7-----7-9-9/11\9/11\9-
E----------------7-----------------------------7-------------------

G-----------9------------------------------9------------
D-11------9--------9-------------11------9--------9-----
A--9--7-7------7-----7-9-9-9-9----9--7-7------7-----7-9-
E----------------7------------------------------7-------

Third Verse
G---------------------------------------------------
D---------------------------------------------------
A--------------------4-----------------------4------
E--0--7---4-5--0--7----5-5--0--7---4-5--0--7----5-5-

G----------------------------7/9-
D--------------------------------
A--------------------4-----------
E--0--7---4-5--0--7----5-5-------

Second Chorus
G-----------9------------------------------9------------------
D-11------9--------9-------------11------9-------9------------
A--9--7-7------7-----7-9-9-9-9----9--7-7-----7-----7-9-\2-----
E----------------7-----------------------------7----------2-2-

G-----------9------------------------------9-------------------
D-11------9--------9-------------11------9-------9-------------
A--9--7-7------7-----7-9-9-9-9----9--7-7-----7-----7-9-9-9-9-9-
E----------------7-----------------------------7---------------

Bridge
G----9----------------7---------5--------9------9-------7---------5-------
D--7---7-10--7-5-7--5---5-3-5h7---7-5---------7---7---5---5-3-5h7---7-5-7-
A--------------------------------------0----0-------0---------------------
E-------------------------------------------------------------------------

G----9----------------7---------5--------------------------------------
D--7---7-10--7-5-7--5---5-3-5h7---7-5----------------------------------
A----------------------------------------------------------------------
E--------------------------------------1-1-1-1-1-1-1-1-0-0-0-0-3-3-3-3-

G----9----------------7---------5---------9-----9--------7---------5------
D--7---7-10--7-5-7--5---5-3-5h7---7-5----------7---7---5---5-3-5h7---7-5-7
A--------------------------------------0-----0-------0--------------------
E-------------------------------------------------------------------------

G----9----------------7---------5---------9-----9--------7---------5------
D--7---7-10--7-5-7--5---5-3-5h7---7-5----------7---7---5---5-3-5h7---7-5-7
A--------------------------------------0-----0-------0--------------------
E-------------------------------------------------------------------------

G----9----------------7---------5---------9-----9--------7---------5------
D--7---7-10--7-5-7--5---5-3-5h7---7-5----------7---7---5---5-3-5h7---7-5-7
A--------------------------------------0-----0-------0--------------------
E-------------------------------------------------------------------------

G----9----------------7---------5---------9-----9--------7---------5------
D--7---7-10--7-5-7--5---5-3-5h7---7-5----------7---7---5---5-3-5h7---7-5-7
A--------------------------------------0-----0-------0--------------------
E-------------------------------------------------------------------------

Outro
G----9----------------7---------5---------9-----9--------7----------5h7p5-----
D--7---7-10--7-5-7--5---5-3-5h7---7-5----------7---7---5---5-3-5h7--------7-5-
A--------------------------------------0-----0-------0------------------------
E-----------------------------------------------------------------------------

G----9----------------7---------5---------9-----9--------7--------
D--7---7-10--7-5-7--5---5-3-5h7---7-5----------7---7---5---5-3--7-
A--------------------------------------0-----0-------0----------0-
E-----------------------------------------------------------------

This is Under The Bridge off of the video Off the Map
Enjoy



Get this song at amazon.com      Ebay     Ringtones Ringtones  


Learn to play: Songwriting, Piano, Harmonica, Guitar
More Red Hot Chili Peppers lyrics available at Muzikum

Related Red Hot Chili Peppers Bass Tabs

Overfunk (b-side) (corrected) bass
Readymade bass
Show Me Your Soul bass
Desecration Smile bass
Flea - Bass Solo bass
Jungle Man bass
One Big Mob bass
The Righteous The Wicked bass
Quixoticelixer bass
Californication (5 String) bass
Higher Ground (stevie Wonder Cover) bass
Hump De Bump (100% Correct) bass
Bicycle Song bass
Turn It Again bass
Otherside bass
Flea:funk Song bass
Dani Calofnia bass
Soul To Squeeze ( 100% Right From Bass Book ) bass
Grand Pappy Du Plenty bass
Gong Li bass


Guitar Tabs









All tabs are property and copyright of their owners. All tabs provided for educational purposes only. Privacy Policy, DMCA