Red Hot Chili Peppers

Under The Bridge (guitar Intro For Bass) Bass Tabs



More from Red Hot Chili Peppers

Red Hot Chili Peppers Tabs
Red Hot Chili Peppers Chords
Red Hot Chili Peppers Bass
Red Hot Chili Peppers Lyrics




|--7-----------7----|------------|-------------3---|------------|------------7h9p7--|
|--0----4--7-4---7--|------------|--------4------4-|--4--2------|-----4-7--4-------7|
|-------------------|--4--2------|-----4-----4-----|-------5--2-|-4/5---------------|
|-------------------|--------5-4-|--2--------------|------------|-------------------|

|-----|-------------3----|-----------|-------------7----|-----------|-----------3---|
|-4/6-|---------4------4-|-4--2------|-----4--7--4---7--|-----------|-------4-----4-|
|-5/7-|------4----4------|------5--2-|-4/5--------------|--4-2------|----4----4-----|
|-----|---2--------------|-----------|------------------|-------5-4-|-2-------------|

|-----------|------------7h9p7----|------|----------3----3------|
|-4--2------|------4-7-4-------7--|-4/6--|------4-----4----4----|
|------5--2-|--4/5----------------|-5/7--|---4----4----------4--|
|-----------|---------------------|------|-2--------------------|



Get this song at amazon.com      Ebay     Ringtones Ringtones  


Learn to play: Songwriting, Piano, Harmonica, Guitar
More Red Hot Chili Peppers lyrics available at Muzikum

Related Red Hot Chili Peppers Bass Tabs

Body Of Water bass
Nothin But A G Thang Cover bass
Funky Flea Solo bass
Tearjerker bass
On Mercury bass
Johnny Kick Hole In The Sky bass
American Ghost Dance bass
Under The Bridge "gutar Start" bass
Cabron bass
True Men Don't Kill Coyotes bass
Hey bass
Hump De Bump bass
Mellowship Slinky bass
Dr Funkenstein bass
Parellel Universe bass
What Is Soul bass
Naked In The Rain bass
Danni California bass
Spicy Salsa Jam bass
Religion bass


Guitar Tabs









All tabs are property and copyright of their owners. All tabs provided for educational purposes only. Privacy Policy, DMCA