Red Hot Chili Peppers

Under The Bridge Totally Correct Tabs



More from Red Hot Chili Peppers

Red Hot Chili Peppers Tabs
Red Hot Chili Peppers Chords
Red Hot Chili Peppers Bass
Red Hot Chili Peppers Lyrics



{Intro} Clean Guitar

e---------------------------|---------------------------|
B-3----------3--------------|---------------------------|
G-------2-------2-----------|------------3--------------|
D----4-----4----------------|-------4-------4---4-2-----|
A-5-----------------4-2-----|----4-----4------------5-2-|
E-----------------------5-4-|-2-------------------------|

e-----------------------------|---------------------------|
B-------------3h5p3-----------|---------------------------|
G---------2---------2---------|------------3--------------|
D-----4-----4-----------4/6-6-|-------4-------4---4-2-----|
A-4/5---5---------------5/7-7-|----4-----4------------5-2-|
E-----------------------------|-2-------------------------|

e-----------------------------|---------------------------|
B--------------3--------------|---------------------------|
G---------2-------2-----------|------------3--------------|
D-----4------4----------------|-------4-------4---4-2-----|
A-4/5---5-------------4-2-----|----4-----4------------5-2-|
E-------------------------5-4-|-2-------------------------|

e------------------------------|----------------------------|
B--------------3h5p3-----------|----------------------------|
G---------2----------2---------|------------3-------3-------|
D-----4------4-----------4/6-6-|-------4-------4------4-----|
A-4/5---5----------------5/7-7-|----4-----4------4------4/7-|
E------------------------------|-2--------------------------|

Verse
E B C#m G#m A E B C#m A

Pre Chorus
F#m E B F#m

Chorus
A Am7 G6 Fmaj7

I cant remember what u call this last part but i added in the lyrics so u would know what
part it is

A Am7
Under the bridge downtown
G6 Fmaj7
Is where I drew some blood
A Am7
Under the bridge downtown
G6 Fmaj7
I could not get enough
A Am7
Under the bridge downtown
G6 Fmaj7
Forgot about my love
A Am7
Under the bridge downtown
G6 Fmaj7
I gave my life away


Just follow your ears, Im positive its 100% correct, please rate me!! thanks guys, peace
out



Get this song at amazon.com      Ebay     Ringtones Ringtones  


Learn to play: Songwriting, Piano, Harmonica, Guitar
More Red Hot Chili Peppers lyrics available at Muzikum

Related Red Hot Chili Peppers Tabs

Sikamikahingo tabs
Scar Tissue Live Solos tabs
My Friends tabs
Dr Funkenstein tabs
Get On Top tabs
Under My Thumb tabs
Charlie Bass tabs
Tiny Dancer Live Cover tabs
Battle Ship tabs
Love Rollercoaster tabs
American Ghostdance tabs
Yertle The Turtle Bass tabs
I Could Die For You (3) tabs
What Is Soul (2) tabs
Nevermind tabs
By The Way Guitar Tab tabs
This Velvet Glove (3) tabs
Fat Dance tabs
Brothers Cup Bass tabs
Universally Speaking (7) tabs


Guitar Tabs









All tabs are property and copyright of their owners. All tabs provided for educational purposes only. Privacy Policy, DMCA