Red Hot Chili Peppers

Under The Bridge Guitar Intro On Bass Bass Tabs



More from Red Hot Chili Peppers

Red Hot Chili Peppers Tabs
Red Hot Chili Peppers Chords
Red Hot Chili Peppers Bass
Red Hot Chili Peppers Lyrics




This is the guitar intro to "Under the Bridge" translated to bass.

G:-19----------19----------------|-------------------------------|
D:-------18-------18-------------|------------19-----------------|
A:----20----20-------------------|------20-------20--20-18-------|
E:-21----------------20-18-17-16-|14-20----20--------------21-18-|

G:-------------------19h21p19-------------|--------------------------------|
D:-------------18-------------18----------|-------------19-----------------|
A:-------20-------20-------------20/22-22-|-------20-------20--20-18-------|
E:-20/21----21-------------------21/23-23-|-14-20----20--------------21-18-|

G:-19----------19----------------|-------------------------------|
D:-------18-------18-------------|------------19-----------------|
A:----20----20-------------------|------20-------20--20-18-------|
E:-21----------------20-18-17-16-|14-20----20--------------21-18-|

G:-------------------19h21p19-------------|----------------------------------|
D:-------------18-------------18----------|-------------19-------19----------|
A:-------20-------20-------------20/22-22-|-------20-------20-------20-------|
E:-20/21----21-------------------21/23-23-|-14-20----20-------20-------20/23-|



Get this song at amazon.com      Ebay     Ringtones Ringtones  


Learn to play: Songwriting, Piano, Harmonica, Guitar
More Red Hot Chili Peppers lyrics available at Muzikum

Related Red Hot Chili Peppers Bass Tabs

Dani Calofnia bass
Slane Castle Jam 2 bass
Song: Savior bass
Under The Bridge Intro On Bass bass
Theyre Red Hot bass
Californication (live At Slane) bass
Look Around bass
Rare Bass Solo bass
Jungle Man bass
Strom In A Teacup bass
Transcending bass
Danni California bass
Make You Feel Better bass
Can't Stop Bass Tab bass
She's Only 18 (correct) bass
Mommy Wheres Daddy bass
Suck My Kiss (in Detail) bass
Fight Like A Brave bass
Aeroplane bass
Charlie bass


Guitar Tabs









All tabs are property and copyright of their owners. All tabs provided for educational purposes only. Privacy Policy, DMCA