Red Hot Chili Peppers

Under The Bridge (100% Correct) Bass Tabs



More from Red Hot Chili Peppers

Red Hot Chili Peppers Tabs
Red Hot Chili Peppers Chords
Red Hot Chili Peppers Bass
Red Hot Chili Peppers Lyrics




This is my First tab EVER...I hope u all like it ....


(0:52)-(0:56)
G|-----------------|
D|-----------------|
A|-----------------|
E|--(0)------------|

(1:27)
|-----------------------------------|
|--11-----9-------9-------4-4-------|
|--9--7-7---7-------7-(9)-----------|
|-------------9-7-------------------|

(1:33)
|-----------------------------------|
|--11-----9-------9-------4h64h6-4--|
|--9--7-7---7-------7-(9)-----------|
|-------------9-7-------------------|

(1:39)
|-----------------------------------|
|--11------9-------9------4-4-------|
|--9--7-7---7-------7-(9)-----------|
|-------------9-7-------------------|

(1:44)
|-----------------------------------|
|--11-----9-------9-----------------|
|--9--7-7---7-------7-(9)-Hold-This-|
|-------------9-7-------------------|

Bridge (1:50)

|--------------------------------------------|
|--------------------------------------------|
|------------0-------------------------------|play 3x
|--0---7---4-------0---7---9-5--5-5----------|

(2:24)

|----------------|
|---12h(14)------|
|----------------|
|----------------|

(2:30)

|-----------------------------------|
|--11-----9-------9-----------------|
|--9--7-7---7-------7-(9)--999------|
|-------------9-7-------------------|

(2:35)

|-----------------------------------|
|--11-----9-------9-----------------|
|--9--7-7---7-------7-(9)-----------|
|-------------9-7-----------2-2-----|


(2:41)
|-----------------------------------|
|--11-----9-------9-----------------|
|--9--7-7---7-------7-(9)--9-9------|
|-------------9-7-------------------|


(2:47)
|-----------------------------------|
|--11-----9-------9-----------------|
|--9--7-7---7-------7-(9)--999------|
|-------------9-7-------------------|



ENDING

(2:52)
|----9------------7---------7-----------|
|--7---7-10-7-5-7---5---5-7--7-5--------|
|---------------------8-----------------|
|---------------------------------------|


(2:58)
|----9---9----9------7----------7h5------|
|--7---7---77---7--5---5----5h7-----5h7--|
|------------------------8---------------|
|----------------------------------------|


(3:03)

|----9------------7---------7-----------|
|--7---7-10-7-5-7---5---5-7--7-5--------|
|---------------------8-----------------|
|---------------------------------------|


(3:09)
|---------------------------------------|
|---------------------------------------|
|---------------------------------------|
|--0h2-2-2-2-2-2-2-2-0-0-0-0-3-3-3-3----|


(3:14)
|----9------------7---------7-----------|
|--7---7-10-7-5-7---5---5-7--7-5--------|
|---------------------8-----------------|
|---------------------------------------|


(3:20)
|----9---9----9------7----------7h5------|
|--7---7---7---7--5---5----5h7-----5h7--|
|------------------------8---------------|
|----------------------------------------|


(3:25)
|----9------------7---------7-----------|
|--7---7-10-7-5-7---5---5-7--7-5--------|
|---------------------8-----------------|
|---------------------------------------|


(3:31)
|----9---9----9------7----------7h5------|
|--7---7---7---7--5---5----5h7-----5h7---|
|------------------------8---------------|
|----------------------------------------|


(3:36)
|----9------------7---------7-----------|
|--7---7-10-7-5-7---5---5-7--7-5--------|
|---------------------8-----------------|
|---------------------------------------|


(3:42)
|----9---9----9------7----------7h5------|
|--7---7---7---7--5---5----5h7-----5h7---|
|------------------------8---------------|
|----------------------------------------|


(3:47)
|----9------------7---------7-----------|
|--7---7-10-7-5-7---5---5-7--7-5--------|
|---------------------8-----------------|
|---------------------------------------|




(3:52)
|----9---9----9------7----------7h5------|
|--7---7---7---7--5---5----5h7-----5h7---|
|------------------------8---------------|
|----------------------------------------|


(3:58)
|----9------------7---------7-----------|
|--7---7-10-7-5-7---5---5-7--7-5--------|
|---------------------8-----------------|
|---------------------------------------|


(4:03)
|----9---9----9------7----------7h5------|
|--7---7---7---7--5---5----5h7-----5h7---|
|------------------------8---------------|
|----------------------------------------|


(4:08)
|----9------------7---------7-----------|
|--7---7-10-7-5-7---5---5-7--7-5--------|
|---------------------8-----------------|
|---------------------------------------|

(4:14)
|----9---9----9------7-------------------|
|--7---7---7---7--5---5------------------|
|------------------------8------(0)------|
|----------------------------------------|


(4:25)
|--14---------------|
|--14---------------|
|-------------------|
|-------------------|



Get this song at amazon.com      Ebay     Ringtones Ringtones  


Learn to play: Songwriting, Piano, Harmonica, Guitar
More Red Hot Chili Peppers lyrics available at Muzikum

Related Red Hot Chili Peppers Bass Tabs

Fleas Funkadelic Jam bass
Grand Pappy Du Plenty bass
Flea Bass Solo Fix bass
Rollercoaster Of Love bass
Tear (complete) bass
If You Want Me To Stay bass
All Around The World (excently Perfect) bass
Soul To Squeeze ( 100% Right From Bass Book ) bass
Backwoods bass
Carbon bass
Parallel Universe bass
Tear bass
Freaky Styley bass
C'mon Girl bass
Easily bass
Roller coaster of love bass
Subway To Venus (complete) bass
Good Time Boys bass
One Hot Minute bass
Simple Nice bass


Guitar Tabs









All tabs are property and copyright of their owners. All tabs provided for educational purposes only. Privacy Policy, DMCA