Red Hot Chili Peppers

Under My Thumb Tabs



More from Red Hot Chili Peppers

Red Hot Chili Peppers Tabs
Red Hot Chili Peppers Chords
Red Hot Chili Peppers Bass
Red Hot Chili Peppers Lyrics




Gtr I
|---------|---------|----3-(3)-5-7-(7)-------|
|---------|---------|--5---------------5---5-|
|---------|---------|------------------------|
|---------|---------|------------------------|
|---------|---------|------------------------|
|---------|---------|------------------------|


|--------2--3-(3)-5----------|---------0-1-3----|--------0-(0)-1-3---|
|-(5)--3------------3-(3)--3-|-(3)---1-------1--|--1---1-----------1-|
|----------------------------|------------------|--------------------|
|----------------------------|------------------|--------------------|
|----------------------------|------------------|--------------------|
|----------------------------|------------------|--------------------|


|-------------0--3-5-(5)-7---|------------2-3-5-|-------------0-1--|
|-(1)--1-(1)---------------5-|-(5)---5--3-------|--3---3---1-------|
|----------------------------|------------------|------------------|
|----------------------------|------------------|------------------|
|----------------------------|------------------|------------------|
|----------------------------|------------------|------------------|


|-3--------------0-1-|-(1)-3-----------0--3-|--5-7-(7)----------|
|---1--1---1-(1)-----|-------1-(1)--1-------|----------5---5--3-|
|--------------------|----------------------|-------------------|
|--------------------|----------------------|-------------------|
|--------------------|----------------------|-------------------|
|--------------------|----------------------|-------------------|


|-2-3-5--------------|-----0-1-(1)--3-------|----0-(0)-1-3-(3)------|
|-------3---3-(3)--1-|-(1)------------1--1--|--1---------------1--1-|
|--------------------|----------------------|-----------------------|
|--------------------|----------------------|-----------------------|
|--------------------|----------------------|-----------------------|
|--------------------|----------------------|-----------------------|


|------0-3-5--7----------|------------2-3-5----|-------0-(0)-1-3-(3)----|
|-(1)-----------5-(5)--5-|-(5)--3-(3)-------3--|-3---1----------------1-|
|------------------------|---------------------|------------------------|
|------------------------|---------------------|------------------------|
|------------------------|---------------------|------------------------|
|------------------------|---------------------|------------------------|


|-------0-1-(1)-3---|-------------0--3-1---|-3---3----3-(3)-1----|
|--1--1-----------1-|-(1)--1-(1)---------3-|--------3---------3--|
|-------------------|----------------------|---------------------|
|-------------------|----------------------|---------------------|
|-------------------|----------------------|---------------------|
|-------------------|----------------------|---------------------|


|-----3--3---3-(3)-8-|-(8)-----8-(8)--9-|--(9)-----(9)----------|-------|
|-(3)--------------8-|-(8)-----------10-|-(10)----(10)-10-(10)--|-12----|
|--------------------|------------------|-----------------------|--9----|
|--------------------|------------------|-----------------------|-------|
|--------------------|------------------|-----------------------|-------|
|--------------------|------------------|-----------------------|-------|


|------10-(10)--(10)-8-(8)--|-(8)----------------------|-------------------|
|-(12)-10-(10)--(10)-8-(8)--|-(8)--8-(8)-6-------8---8-|----8-6---8-(8)--8-|
|--(9)----------------------|--------------7-(7)-------|--7-----7----------|
|---------------------------|--------------------------|-------------------|
|---------------------------|--------------------------|-------------------|
|---------------------------|--------------------------|-------------------|


|--------------------------|------------------------|------------------------|
|-(8)--------8-6-(6)----8--|-8-----8-(8)-6-------8--|--8-(8)--8-8-10--12-----|
|------7-(7)---------7-----|-----7---------7-(7)----|------------------------|
|--------------------------|------------------------|--------------------14--|
|--------------------------|------------------------|------------------------|
|--------------------------|------------------------|------------------------|


|---------------------------------|
|------------------------------10-|
|------------------------11-12----|
|-(14)--14-(14)--12-(12)----------|
|---------------------------------|
|---------------------------------|


|-------------------------|----------------------|
|-----------------------8-|-(8)------------------|
|--------------9-(9)-10---|-----------------9-10-|
|-12---12---10------------|-----10--10--10-------|
|-------------------------|----------------------|
|-------------------------|----------------------|


|------------------------------|
|------8---------------------8-|
|-(10)---------------------9---|
|--------10-(10)--10-(10)------|
|------------------------------|
|------------------------------|


|-----------------------|-------------------------|
|-10-12-----------------|----------10-------------|
|--------------------11-|-(11)--12----------------|
|--------14---14--12----|-------------12--12---10-|
|-----------------------|-------------------------|
|-----------------------|-------------------------|


|--------------------------------|----------------------|------------------|
|----------------8---------------|---------8-(8)--------|-----8-6---8---8--|
|------9-10-(10)-----------------|----9-10--------------|--9------7--------|
|-(10)-------------10-(10)---10--|-10------------10--10-|------------------|
|--------------------------------|----------------------|------------------|
|--------------------------------|----------------------|------------------|


|-------------------------|------8-------|
|-(8)--------8-6-(6)---8--|-8--8---8-----|
|------7-(7)---------7----|--------------|
|-------------------------|--------------|
|-------------------------|--------------|
|-------------------------|--------------|


|---8-(8)---9----|--(9)---(9)------------------|
|----------10----|-(10)--(10)-10-(10)-12-(12)--|
|----------------|---------------------9--(9)--|
|----------------|-----------------------------|
|----------------|-----------------------------|
|----------------|-----------------------------|


|---------------10-(10)--|-(10)-8-----------|
|-(12)----(12)--10-(10)--|-(10)---8-----8-6-|
|--(9)-----(9)-----------|------------------|
|------------------------|------------------|
|------------------------|------------------|
|------------------------|------------------|


|----------------------|-----------------|
|----8-(8)--8-(8)----8-|-6---8---8----8--|
|--7---------------7---|---7--------7----|
|----------------------|-----------------|
|----------------------|-----------------|
|----------------------|-----------------|


|-----------------------|-----------------------------|--------------------|
|-(8)-6--------8--8-----|-----8-6-(6)---8-(8)--8-(8)--|-8-8-10-12----------|
|-------7-(7)---------7-|-(7)---------7---------------|--------------------|
|-----------------------|-----------------------------|------------14---14-|
|-----------------------|-----------------------------|--------------------|
|-----------------------|-----------------------------|--------------------|


|---------------------|---------------------------------|
|-----------10--------|---------------------8-----------|
|-----11-12-----------|-----------9-10-(10)-------------|
|--12----------12--12-|---10-(10)-------------10-(10)---|
|---------------------|---------------------------------|
|---------------------|---------------------------------|


|--------------------------|--------------------|
|-----------------8-(8)----|--------8-10-12-----|
|--------9-(9)-10----------|------9-------------|
|-10--10----------------10-|--10------------14--|
|--------------------------|--------------------|
|--------------------------|--------------------|


|-----------------------------------|
|--------------------------------10-|
|--------------------11-12-(12)-----|
|---14-(14)--12-(12)----------------|
|-----------------------------------|
|-----------------------------------|


|------------------------|----------------------------|
|----------------------8-|-(8)------------------------|
|-------------9-(9)-10---|----------------------9-10--|
|-12--12---10------------|-----10---10-(10)--10-------|
|------------------------|----------------------------|
|------------------------|----------------------------|


|-------------------------------|----------------|----------------------|
|------8----------------------8-|-6---8---8----8-|-(8)-6-------8---8--8-|
|-(10)---------------------9----|---7--------7---|-------7-(7)----------|
|--------10-(10)--10-(10)-------|----------------|----------------------|
|-------------------------------|----------------|----------------------|
|-------------------------------|----------------|----------------------|


|-8-------8-|-(8)--9--(9)---(9)------|
|-8---------|-----10-(10)--(10)---10-|
|-----------|------------------------|
|-----------|------------------------|
|-----------|------------------------|
|-----------|------------------------|


|-----------------------|--------10-(10)--(10)-8-|
|-(10)-12-(12)--(12)----|-(12)---10-(10)--(10)-8-|
|-------9--(9)---(9)----|--(9)-------------------|
|-----------------------|------------------------|
|-----------------------|------------------------|
|-----------------------|------------------------|


|-(8)-----------------|---------------|---------------------------|
|-(8)---8-6--------8--|--8----8-6---8-|--8-(8)--------8-6-(6)-----|
|------------7-(7)----|-----7-----7---|---------7-(7)---------7---|
|---------------------|---------------|---------------------------|
|---------------------|---------------|---------------------------|
|---------------------|---------------|---------------------------|


|-------------------|------------------|----------------------------|
|-8--8----8-(8)-6---|-----8---8--8-8-6-|----8-(8)--8-(8)--------8-6-|
|-------7---------7-|-(7)--------------|-7----------------7-(7)-----|
|-------------------|------------------|----------------------------|
|-------------------|------------------|----------------------------|
|-------------------|------------------|----------------------------|


|------------------|----------------------|---7-(7)--(7)----|-(7)--------*|
|-(6)---8--8-----8-|-(8)-6-------8---8----|-8-8-(8)--(8)----|-(8)--------*|
|-----7--------7---|-------7-(7)--------7-|---7-(7)--(7)----|-(7)--------*|
|------------------|----------------------|-----------------|------------*|
|------------------|----------------------|-----------------|------------*|
|------------------|----------------------|-----------------|------------*|




--------------------------------------------------------------------------------


Tablature Legend
----------------
h - hammer-on
p - pull-off
b - bend
pb - pre-bend
r - bend release (if no number after the r, then release immediately)
/\ - slide into or out of (from/to "nowhere")
s - legato slide
S - shift slide
<n> - natural harmonic
[n] - artificial harmonic
n(n) - tapped harmonic
~ - vibrato
tr - trill
T - tap
TP - trem. picking
PM - palm muting
\n/ - tremolo bar dip; n = amount to dip
\n - tremolo bar down
n/ - tremolo bar up
/n\ - tremolo bar inverted dip
= - hold bend; also acts as connecting device for hammers/pulls
<> - volume swell (louder/softer)
x - on rhythm slash represents muted slash
o - on rhythm slash represents single note slash

Misc Legend
-----------
| - bar
|| - double bar
||o - repeat start
o|| - repeat end
*| - double bar (ending)
: - bar (freetime)
$ - Segno
& - Coda
Tempo markers - <E/E./Q/Q./H/H.> = BPM(8/16=s8/s16),
where s8 = swing 8ths, s16 = swing 16ths



--------------------------------------------------------------------------------

** Generated using Power Tab Editor by Brad Larsen: The Official
Power Tab Web Site



Get this song at amazon.com      Ebay     Ringtones Ringtones  


Learn to play: Songwriting, Piano, Harmonica, Guitar
More Red Hot Chili Peppers lyrics available at Muzikum

Related Red Hot Chili Peppers Tabs

Cabron Bass tabs
If You Have To Ask Bass tabs
The Adventures Of Raindance Maggie tabs
By The Way Bass tabs
Annie Wants A Baby tabs
Warm Tape Bass tabs
21st Century tabs
Did I Let You Know tabs
Cabron tabs
Purple Stain tabs
Castles Made Of Sand (2) tabs
No Chump Love Sucker tabs
Parallel Universe Bass tabs
So Much I tabs
Right On Time tabs
Emit Remmus tabs
Road Trippin tabs
Warlocks tabs
Bicycle Song Bass tabs
My Friends tabs


Guitar Tabs









All tabs are property and copyright of their owners. All tabs provided for educational purposes only. Privacy Policy, DMCA