Red Hot Chili Peppers

Two-note Chord/melody Idea Tabs



More from Red Hot Chili Peppers

Red Hot Chili Peppers Tabs
Red Hot Chili Peppers Chords
Red Hot Chili Peppers Bass
Red Hot Chili Peppers Lyrics




Two-note chord/melody idea
By: John Frusciante
Moderately Slow
BPS=82
4/4
E A D G B e
tens, twelve’s, and fourteen’s. Not one’s, zero’s, two’s,
and, four’s.
~~~~ ~~~ ~~~~~ ~~~~~~~~~
e|--------------------------|------------------------------|
B|------10----------5-------|----7--------------14------14-|
G|--------------------------|------------------------------|
D|-------------------------^|------------------------------|
A|-9--------9/---4-----44/5-|-5-------5----/12------12-----|
E|--------------------------|------------------------------|
~~~~ ~~~~~ ~~~~~~~~~~
e|--------------------------|-----^--^------------|
B|------10----------5-------|----7-9----7---------|
G|--------------------------|---------------------|
D|--------------------------|---------------------|
A|/9--------9\---4-----4-/5-|-5-------------------|
E|--------------------------|---------------------|
PLease Say yes!
this is really by John Frusciante!
it's in the february/march 2006 issue



Get this song at amazon.com      Ebay     Ringtones Ringtones  


Learn to play: Songwriting, Piano, Harmonica, Guitar
More Red Hot Chili Peppers lyrics available at Muzikum

Related Red Hot Chili Peppers Tabs

Dr Funkenstein tabs
Instrumental #1 tabs
Get Up And Jump Live tabs
Zephyr Song Solo tabs
Californication + Lyrics tabs
Savior Bass tabs
How Strong tabs
Higher Ground Bass tabs
Melancholy Mechanics tabs
Higher Ground tabs
Especially In Michigan Bass tabs
Dosed Bass tabs
All Around The World tabs
Baby Appeal tabs
Subterranean Homesick Blues tabs
Lovercall tabs
Dont Forget Me Bass tabs
American Ghostdance tabs
Wet Sand tabs
Fire tabs


Guitar Tabs









All tabs are property and copyright of their owners. All tabs provided for educational purposes only. Privacy Policy, DMCA