Red Hot Chili Peppers

Throw Away Your Telivision Bass Tabs



More from Red Hot Chili Peppers

Red Hot Chili Peppers Tabs
Red Hot Chili Peppers Chords
Red Hot Chili Peppers Bass
Red Hot Chili Peppers Lyrics




Verses
|-----------------------------|------------------------------|---|
|-----------------------------|------------------------------|---|
|-----------------------------|-------7-----7-7---7-7--------|---|
|-5-5--5--x-5-5---5-5-0-5-3-|-0-0------0-------------0-8-8-|-5-|
---------------------------------------------------------------^

Choruses (To Coda)
|-14----14-(14)----14----|-16--------------12-12-|-14----14-(14)----14----|-16-----------
|----14---------14----14-|----14--14-(14)-------|-----14--------14-------|----14---14-(1
|------------------------|-----------------------|------------------------|--------------
|------------------------|-----------------------|------------------------|--------------

|-14----14-(14)----14----|-16--------------12-12-|-12---------12-(12)----12-|-10---------
|----14---------14----14-|----14---14-(14)-------|----12-(12)---------12----|----10-10---
|------------------------|-----------------------|--------------------------|------------
|------------------------|-----------------------|--------------------------|------------

Interlude Part
|-------------------------|-------------------------|
|-7-7-(7)-7-7-(7)-7-7-7-7-|-7/9-9-9-9-9-(9)-9-9-9-9-|
|-------------------------|-------------------------|
|-------------------------|-------------------------|

|------------------------------------|------------------------------------|
|-10/12-12-12-12-12-(12)-12-12-12-14-|-14/12-12-12-12-12-(12)-12-12-12-12-|
|------------------------------------|------------------------------------|
|------------------------------------|------------------------------------|

|-------------------------|-------------------------|
|-7-7-(7)-7-7-(7)-7-7-7-7-|-7/9-9-9-9-9-(9)-9-9-9-9-|
|-------------------------|-------------------------|
|-------------------------|-------------------------|

|---------------------------------|---------------------------------|---|
|-10-12-12-12-12-(12)-14-14-14-14-|-14-12-12-12-12-(12)-12-12-12-12-|---|
|---------------------------------|---------------------------------|---|
|---------------------------------|---------------------------------|-5-|
----------------------------------------------------------------------^



Get this song at amazon.com      Ebay     Ringtones Ringtones  


Learn to play: Songwriting, Piano, Harmonica, Guitar
More Red Hot Chili Peppers lyrics available at Muzikum

Related Red Hot Chili Peppers Bass Tabs

Search And Destroy bass
Especially In Michigan bass
Hollywood bass
Another Flea Warm Up bass
All Around The World bass
Hey Bass Tab bass
Song That Made Us What We Are Today bass
Why Dont You Love Me bass
Strip Me Down bass
Funky Monks (4 String Adaption) bass
Cant Stop bass
Chili Peppers Blow bass
Readymade bass
FelaŽs Cock bass
Jungle Man bass
Skinny Sweaty Man bass
Backwoods bass
The Righteous The Wicked bass
Road Trippin' (the True Way) bass
Slane Castle Jam #1 bass


Guitar Tabs









All tabs are property and copyright of their owners. All tabs provided for educational purposes only. Privacy Policy, DMCA