Red Hot Chili Peppers

This Velvet Glove Bass Tabs



More from Red Hot Chili Peppers

Red Hot Chili Peppers Tabs
Red Hot Chili Peppers Chords
Red Hot Chili Peppers Bass
Red Hot Chili Peppers Lyrics



Red Hot Chili Peppers
This Velvet Glove
Californication

This version is 100% correct. That's cuz it's out of the tab book (ssshhh). The only way
you can get a Chili Peppers tab really good is out of a book so here it is.

T=Tap *=Strum With Fingers
P=Pop

Intro
G|----12-10----9-10---|-9---10---9---9-|-------10-12----10-9---|-----9---10-9--------|
D|-12-------10------8-|---8----8---8---|-10h12-------10------8-|-(8)---8------8-8-10-|
A|--------------------|----------------|-----------------------|---------------------|
E|--------------------|----------------|-----------------------|---------------------|

G|------------------------|--------------|----------------10-9---|------------------|
D|-10h12-12-12-10-10-10-8-|-8-8-8--8-8-8-|-10h12-12-12-10------8-|-(8)-8-8-8--8-8-8-|
A|------------------------|--------------|-----------------------|------------------|
E|------------------------|--------------|-----------------------|------------------|

Verse 1:
G|-------12-10----10-9---|-9---10---9---9-|-------10-12----10-9---|-9---10-9--------|
D|-10h12-------10------8-|---8----8---8---|-10h12-------10------8-|---8------8-8-10-|
A|-----------------------|----------------|-----------------------|-----------------|
E|-----------------------|----------------|-----------------------|-----------------|

G|-------12-12----10-9---|-----9---10---9---9-|-------10-12----10-9---|-9---10---9------|
D|-10h12-------10------8-|-(8)---8----8---8---|-10h12-------10------8-|---8----8---8-10-|
A|-----------------------|--------------------|-----------------------|-----------------|
E|-----------------------|--------------------|-----------------------|-----------------|

G|-------12-10----10-9---|-9---10---9---9-|-------10-12----10-9---|-9---10-9--------|
D|-10h12-------10------8-|---8----8---8---|-10h12-------10------8-|---8------8-8-10-|
A|-----------------------|----------------|-----------------------|-----------------|
E|-----------------------|----------------|-----------------------|-----------------|

G|-------12-12----10-9---|-----9---10---9---9-|-------10-12----10-9---|-9---10---9------|
D|-10h12-------10------8-|-(8)---8----8---8---|-10h12-------10------8-|---8----8---8-10-|
A|-----------------------|--------------------|-----------------------|-----------------|
E|-----------------------|--------------------|-----------------------|-----------------|

Interlude 1:
G|------------------------|-------------|------------------------|----------------|
D|-10h12-12-12-10-10-10-8-|-8-8-8-8-8-8-|-10h12-12-12-10-10-10-8-|-8-8-8-8-8-8h10-|
A|------------------------|-------------|------------------------|----------------|
E|------------------------|-------------|------------------------|----------------|

G|----------------10-9---|-------------|-------12-10----9-10---|-9-9-10-10-9-9-----|
D|-10h12-12-12-10------8-|-8-8-8-8-8-8-|-10h12-------10------8-|-8-8--8--8-8-8-8-8-|
A|-----------------------|-------------|-----------------------|-------------------|
E|-----------------------|-------------|-----------------------|-------------------|

Verse 2:
G|-------12-12----10-9---|-----9---10---9---9-|-------10-12----10-9---|-9---10---9------|
D|-10h12-------10------8-|-(8)---8----8---8---|-10h12-------10------8-|---8----8---8-10-|
A|-----------------------|--------------------|-----------------------|-----------------|
E|-----------------------|--------------------|-----------------------|-----------------|

G|-------12-10----10-9---|-9---10---9---9-|-------10-12----10-9---|-----9---10-9--------|
D|-10h12-------10------8-|---8----8---8---|-10h12-------10------8-|-(8)---8------8-8-10-|
A|-----------------------|----------------|-----------------------|---------------------|
A|-----------------------|----------------|-----------------------|---------------------|

Chorus 1:
G|---7-----------5---|--5-5-----7-5-------|---------------5---|---5-----7-5-------|
D|-------------------|--7-7-----7-7-------|-------------------|---7-----7-7-------|
A|-5---x-x-5-5-5-----|--------------------|-5-5-x-x-5-5-5-----|-------------------|
E|-----------------5-|------x-x-----x-x-x-|-----------------5-|-5---x-x-----x-x-x-|
T P T T T T T P T P P T T P P T T T T T T T T T T P T T P T T P P T T T

G|---------------5---|-----5-5-----5-5-------|-5-----5-----5---|-------------|
D|-------------------|-----7-7-----7-7-------|-5-----5-----5---|-------------|
A|-5-5-x-x-5-5-5-----|-----------------------|-3-3-3-3-3-3-3-3-|-------------|
E|-----------------5-|-(5)-----x-x-----x-x-x-|-----------------|-5-5-5-5-5-5-|
T T T T T T T P T P P T T P P T T T * T T * T T * T T T T T T T

Interlude 2:
G|-------12-10----9-10---|-9---10---9------|-------10-12----9h10h9h10---|-9---10-9--------|
D|-10h12-------10------8-|---8----8---8-10-|-10h12-------10-----------8-|---8------8-8-10-|
A|-----------------------|-----------------|----------------------------|-----------------|
E|-----------------------|-----------------|----------------------------|-----------------|

G|-------------------|-------------------------|-------------------------|
D|-(8)-8-8-8-8-8-8-8-|-------------------------|-------------------------|
A|-------------------|-12-12-12-12-12-12-12-12-|-12-12-12-12-12-12-12-12-|
E|-------------------|-------------------------|-------------------------|

G|-------------------------------|-----------------------|
D|-------------------------------|-----------------------|
A|-12-12-12-12-12-12-12-12-12-12-|-12-12-12-12-12-12-12-|
E|-------------------------------|-----------------------|

Chorus 2:
G|---7-----------5---|--5-5-----7-5-------|---------------5---|---5-----7-5-------|
D|-------------------|--7-7-----7-7-------|-------------------|---7-----7-7-------|
A|-5---x-x-5-5-5-----|--------------------|-5-5-x-x-5-5-5-----|-------------------|
E|-----------------5-|------x-x-----x-x-x-|-----------------5-|-5---x-x-----x-x-x-|
T P T T T T T P T P P T T P P T T T T T T T T T T P T T P T T P P T T T

G|---------------5---|-----5-5-----5-5-------|-5-----5-----5---|-------------|
D|-------------------|-----7-7-----7-7-------|-5-----5-----5---|-------------|
A|-5-5-x-x-5-5-5-----|-----------------------|-3-3-3-3-3-3-3-3-|-------------|
E|-----------------5-|-(5)-----x-x-----x-x-x-|-----------------|-5-5-5-5-5-5-|
T T T T T T T P T P P T T P P T T T * T T * T T * T T T T T T T

G|---7-----------5---|--5-5-----7-5-------|---------------5---|---5-----7-5-------|
D|-------------------|--7-7-----7-7-------|-------------------|---7-----7-7-------|
A|-5---x-x-5-5-5-----|--------------------|-5-5-x-x-5-5-5-----|-------------------|
E|-----------------5-|------x-x-----x-x-x-|-----------------5-|-5---x-x-----x-x-x-|
T P T T T T T P T P P T T P P T T T T T T T T T T P T T P T T P P T T T

G|---------------5---|-----5-5-----5-5-------|-5-----5-----5---|-------------|
D|-------------------|-----7-7-----7-7-------|-5-----5-----5---|-------------|
A|-5-5-x-x-5-5-5-----|-----------------------|-3-3-3-3-3-3-3-3-|-------------|
E|-----------------5-|-(5)-----x-x-----x-x-x-|-----------------|-5-5-5-5-5-5-|
T T T T T T T P T P P T T P P T T T * T T * T T * T T T T T T T

G|-------12-10----9-10---|-9-10-9h10p9------|-------10-12----9h10h9h10---|-9-9-10-10-9-9-|
D|-10h12-------10------8-|---8---------8-10-|-10h12-------10-----------8-|-8-8--8--8-8-8-|
A|-----------------------|------------------|----------------------------|---------------|
E|-----------------------|------------------|----------------------------|---------------|

Outro/Verse
G|-------12-12----10-9---|-----9---10---9---9-|-------10-12----10-9---|-9---10---9------|
D|-10h12-------10------8-|-(8)---8----8---8---|-10h12-------10------8-|---8----8---8-10-|
A|-----------------------|--------------------|-----------------------|-----------------|
E|-----------------------|--------------------|-----------------------|-----------------|

G|-------12-10----10-9---|-9---10---9---9-|-------10-12----10-9---|-----9h10---9h10---9h10------|
D|-10h12-------10------8-|---8----8---8---|-10h12-------10------8-|-(8)------8------8------9-10-|
A|-----------------------|----------------|-----------------------|-----------------------------|
E|-----------------------|----------------|-----------------------|-----------------------------|

G|-------12-10----10-9---|-9---10---9---9-|-------10-12----10-9---|-9---10-9--------|
D|-10h12-------10------8-|---8----8---8---|-10h12-------10------8-|---8------8-8-10-|
A|-----------------------|----------------|-----------------------|-----------------|
E|-----------------------|----------------|-----------------------|-----------------|

G|-------12-10----9-10---|-10---9-10-9------|-------12-10----9-10---|------------------|
D|-10h12-------10------8-|----8--------8-10-|-10h12-------10------8-|------------------|
A|-----------------------|------------------|-----------------------|------------------|
E|-----------------------|------------------|-----------------------|------------------|

Taken from The BassMasta -- http://www.tabs-database.com



Get this song at amazon.com      Ebay     Ringtones Ringtones  


Learn to play: Songwriting, Piano, Harmonica, Guitar
Also available at Muzikum: Red Hot Chili Peppers - This Velvet Glove lyrics

Related Red Hot Chili Peppers Bass Tabs

Sexamaniac(cant Stop) bass
Coffee Shop bass
Flea: Bass Solo 2 bass
If bass
Flea Video Bass Tab bass
Special Secret Song Inside bass
Ill Be Your Domino bass
Fleas Funkadelic Jam bass
True Men Don't Kill Coyotes bass
Buckle Down bass
Funky Flea Solo bass
Magic Johnson bass
The Power Of Equality bass
Power Of Equality bass
Parallel Universe (%100 Perfect) bass
One Hot Minute bass
Slowly Deeply bass
Instrumental #1 bass
Around The World2 bass
I Could Die For You bass


Guitar Tabs









All tabs are property and copyright of their owners. All tabs provided for educational purposes only. Privacy Policy, DMCA