Red Hot Chili Peppers

This Is The Place Bass Tabs



More from Red Hot Chili Peppers

Red Hot Chili Peppers Tabs
Red Hot Chili Peppers Chords
Red Hot Chili Peppers Bass
Red Hot Chili Peppers Lyrics



Band: Red Hot Chili Peppers

Sond: This is the Place

Tabbed By: Denniejj



Wacht carefully for the chancges





Intro

G|--2-2-2-5-5--------|---------5-5-2-2-2-|--------2-2--------|-------------------|

D|-------------5-5-5-|--3-3-3------------|-------------3-3-3-|---------5-5-------|

A|-------------------|-------------------|-5-5-5-------------|--3-3-3------5-5-5-|

E|-------------------|-------------------|-------------------|-------------------|





G|--2-2-2-5-5-------|--------5-5-2-2-2-|---------2-2--------|-----------------|

D|------------5-5-5-|-3-3-3------------|--------------3-3-3-|-----------------|

A|------------------|------------------|--5-5-5-------------|-3-3-3-----5-5-5-|

E|------------------|------------------|--------------------|-------3-3-------|



Verse

G|--2-2-2-5-5--------|--------5-5-2-2-2-|---------2-2--------|------------------|

D|------------5-5-5--|-3-3-3------------|--------------3-3-3-|------------------|

A|-------------------|------------------|--5-5-5-------------|-3-3-3-----5-5-5--|

E|-------------------|------------------|--------------------|-------3-3--------|



G|--2-2-2-5-5--------|--------5-5-2-2-2-|---------2-2--------|-----------------|

D|------------5-5-5--|-3-3-3------------|--------------3-3-3-|-----------------|

A|-------------------|------------------|--5-5-5-------------|-3-3-3-----5-5-5-|

E|-------------------|------------------|--------------------|-------3-3-------|



G|--2-2-2-5-5-------|---------5-5-2-2-2-|-------2-2---------|------------------|

D|------------5-5-5-|--3-3-3------------|-------------3-3-3-|--------5-5-------|

A|------------------|-------------------|-5-5-5-------------|--3-3-3-----5-5-5-|

E|------------------|-------------------|-------------------|------------------|



G|--2-2-2-5-5-------|---------5-5-2-2-2-|-------2-2---------|-------------------|

D|------------5-5-5-|--3-3-3------------|-------------3-3-3-|---------5-5-------|

A|------------------|-------------------|-5-5-5-------------|--3-3-3-----5-5-5--|

E|------------------|-------------------|-------------------|-------------------|



Chorus

G|--2-2-2-5-5-------|---------5-5-2-2-2-|--------2-2--------|-------------------|

D|------------5-5-5-|--3-3-3------------|-------------3-3-3-|---------5-5-------|

A|------------------|-------------------|-5-5-5-------------|--3-3-3-----5-5-5--|

E|------------------|-------------------|-------------------|-------------------|



G|--2-2-2-5-5--------|--------5-5-2-2-2-|---------2-2--------|------------------|

D|-------------5-5-5-|-3-3-3------------|--------------3-3-3-|------------------|

A|-------------------|------------------|--5-5-5-------------|-3-3-3-----5-5-5--|

E|-------------------|------------------|--------------------|-------3-3--------|



Interlude

G|--2-2-2-5-5-------|---------5-5-2-2-2-|--------2-2--------|-------------------|

D|------------5-5-5-|--3-3-3------------|-------------3-3-3-|--------5-5--------|

A|------------------|-------------------|-5-5-5-------------|--3-3-3-----5-5-5--|

E|------------------|-------------------|-------------------|-------------------|



Verse

G|--2-2-2-5-5-------|--------5-5-2-2-2-|---------2-2--------|------------------|

D|------------5-5-5-|-3-3-3------------|--------------3-3-3-|------------------|

A|------------------|------------------|--5-5-5-------------|-3-3-3-----5-5-5--|

E|------------------|------------------|--------------------|-------3-3--------|



G|--2-2-2-5-5-------|--------5-5-2-2-2-|--------2-2--------|------------------|

D|------------5-5-5-|-3-3-3------------|-------------3-3-3-|------------------|

A|------------------|------------------|--5-5-5------------|-3-3-3-----5-5-5--|

E|------------------|------------------|-------------------|-------3-3--------|



G|--2-2-2-5-5-------|---------5-5-2-2-2-|-------2-2--------|-------------------|

D|------------5-5-5-|--3-3-3------------|------------3-3-3-|--------5-5--------|

A|------------------|-------------------|-5-5-5------------|--3-3-3-----5-5-5--|

E|------------------|-------------------|------------------|-------------------|



G|--2-2-2-5-5-------|---------5-5-2-2-2-|-------2-2--------|-------------------|

D|------------5-5-5-|--3-3-3------------|------------3-3-3-|--------5-5--------|

A|------------------|-------------------|-5-5-5------------|--3-3-3-----5-5-5--|

E|------------------|-------------------|------------------|-------------------|



Chor

G|--2-2-2-5-5-------|---------5-5-2-2-2-|-------2-2--------|-------------------|

D|------------5-5-5-|--3-3-3------------|------------3-3-3-|--------5-5--------|

A|------------------|-------------------|-5-5-5------------|--3-3-3-----5-5-5--|

E|------------------|-------------------|------------------|-------------------|



G|--2-2-2-5-5-------|--------5-5-2-2-2-|--------2-2-------|------------------|

D|------------5-5-5-|-3-3-3------------|------------3-3-3-|------------------|

A|------------------|------------------|--5-5-5-----------|-3-3-3-----5-5-5--|

E|------------------|------------------|------------------|-------3-3--------|



Interlude

G|--2-2-2-5-5-------|---------5-5-2-2-2-|--------2-2-------|-------------------|

D|------------5-5-5-|--3-3-3------------|------------3-3-3-|--------5-5--------|

A|------------------|-------------------|-5-5-5------------|--3-3-3-----5-5-5--|

E|------------------|-------------------|------------------|-------------------|



G|--2-2-2-5-5-------|--------5-5-2-2-2-|---------2-2--------|------------------|

D|------------5-5-5-|-3-3-3------------|--------------3-3-3-|------------------|

A|------------------|------------------|--5-5-5-------------|-3-3-3-----5-5-5--|

E|------------------|------------------|--------------------|-------3-3--------|

Bridge

Base Tacet











Verse

G|----------------------|-------------------|---------------------|-----------------------|

D|--7-7-10-10-----------|-------10-10-7-7-7-|----------7-7--------|-----------------------|

A|-------------10-10-10-|-8-8-8-------------|---------------8-8-8-|--------10-10----------|

E|----------------------|-------------------|--10-10-10-----------|-8-8-8---------10-10-10|



G|--2-2-2-5-5-------|--------5-5-2-2-2-|--------2-2-------|------------------|

D|------------5-5-5-|-3-3-3------------|------------3-3-3-|------------------|

A|------------------|------------------|--5-5-5-----------|-3-3-3-----5-5-5--|

E|------------------|------------------|------------------|-------3-3--------|



Chorus

G|--2-2-2-5-5--------|--------5-5-2-2-2-|-------2-2--------|-------------------|

D|------------5-5-5--|--3-3-3-----------|-----------3-3-3--|--------5-5--------|

A|-------------------|------------------|-5-5-5------------|--3-3-3-----5-5-5--|

E|-------------------|------------------|------------------|-------------------|



G|--2-2-2-5-5-------|--------5-5-2-2-2-|--------2-2--------|------------------|

D|------------5-5-5-|-3-3-3------------|-------------3-3-3-|------------------|

A|------------------|------------------|--5-5-5------------|-3-3-3-----5-5-5--|

E|------------------|------------------|-------------------|-------3-3--------|



Bridge

G|--2-2-2-5-5-------|-------5-5-2-2-2-|--------2-2--------|------------------|

D|------------5-5-5-|-3-3-3-----------|-------------3-3-3-|------------------|

A|------------------|-----------------|--5-5-5------------|-3-3-3-----5-5-5--|

E|------------------|-----------------|-------------------|-------3-3--------|



G|--2-2-2-5-5-------|--------5-5-2-2-2-|-------2-2--------|-------------------|

D|------------5-5-5-|--3-3-3-----------|------------3-3-3-|-------------------|

A|------------------|------------------|-5-5-5------------|--3-3-3-----5-5-5--|

E|------------------|------------------|------------------|--------3-3--------|



Interlude

G|--2-2-2-5-5-------|---------5-5-2-2-2-|-------2-2--------|-------------------|

D|------------5-5-5-|--3-3-3------------|------------3-3-3-|--------5-5--------|

A|------------------|-------------------|-5-5-5------------|--3-3-3-----5-5-5--|

E|------------------|-------------------|------------------|-------------------|



G|--2-2-2-5-5-------|-------5-5-2-2-2-|--------2-2--------|------------------|

D|------------5-5-5-|-3-3-3-----------|-------------3-3-3-|------------------|

A|------------------|-----------------|--5-5-5------------|-3-3-3-----5-5-5--|

E|------------------|-----------------|-------------------|-------3-3--------|



G|---------|

D|-------7-|

A|---------|

E|--5-5----|



any mistake please contact me: webmaster at tabs-database.com.com

Added by tabs-database.com and our distinguished partners
Get this song at amazon.com      Ebay     Ringtones Ringtones  


Learn to play: Songwriting, Piano, Harmonica, Guitar
More Red Hot Chili Peppers lyrics available at Muzikum

Related Red Hot Chili Peppers Tabs

Boyz N The Hood tabs
Tear (2) tabs
The Coffee Shop tabs
Ready Made tabs
True Man Dont Kill Coyote tabs
Universally Speaking (3) tabs
This Velvet Glove (2) tabs
If You Got Funk You Got Soul Bass tabs
On Mercury tabs
Catholic School Girls Rule tabs
Minor Thing (2) tabs
Eskimo tabs
Tell Me Baby Perfect tabs
Readymade tabs
Give It Away Live tabs
Scar Tissue Live Solos tabs
Sir Psycho Sexy tabs
Funky Monks Bass tabs
Stone Cold Bush tabs
Dani California Intro tabs


Guitar Tabs









All tabs are property and copyright of their owners. All tabs provided for educational purposes only. Privacy Policy, DMCA