Red Hot Chili Peppers

The Zephyr Song Live At Slane Castle Tabs



More from Red Hot Chili Peppers

Red Hot Chili Peppers Tabs
Red Hot Chili Peppers Chords
Red Hot Chili Peppers Bass
Red Hot Chili Peppers Lyrics

tabs-database.com[http://www.tabs-database.com.com/]
TABBED BY: McLeach



Red Hot Chili Peppers

The Zephyr Song

Live At Slane Castle



Here is The Zephyr Song tabs that you have been waiting for. I’ve worked hard with watching and listening the DVD, and here you have it as correct as you can get!



It is so nice song to play (like all Chili’s songs) and especially

the ending line is amazing.



TIPS: (h)=hammer, (b)=bend, (/)=slide, (~)=vibrato, (p)=pull-off



TUNING: EADGBe, you have to highlight the “high sounds”, cause the verses are

played on the upper strings.



PLAYING ORDER:



INTRO

VERSE 1

VERSE 2

VERSE 3

VERSE 2

CHORUS 1

VERSE 1

VERSE 3

VERSE 2

CHORUS 1

BRIDGE 1

SOLO

BRIDGE 2 x2

CHORUS 2 x4

ENDING





INTRO



-------------------------------------------|

-------------------------------------------|

-------12---------10--------4--------5/7-5-|

----10----------9---------5--------7-------|

-12----------10---------7--------8---------|

-------------------------------------------|



------------------------|-------------------|

------------------------|-------------------|

-------9---10-12-10p9-9-|------7-9-10-9p7-7-|

----10------------------|----9--------------|

-12---------------------|-10----------------|

------------------------|-------------------|



------------------|-----------------|

------------------|-----------------|

-----4-5-7-5p74-4-|-----5-7-9-7p5-5-|

---5--------------|---7-------------|

-7----------------|-8---------------|

------------------|-----------------|



VERSE 1



--------------------|-----------------|---------------|-------------------|

--------------------|-----------------|---------------|-------------------|

-------9----12-10-9-|------7---10-9-7-|-----4---7-5-4-|-----5-----9-7-(5)-|

----10---10---------|----9---9--------|---5---5-------|---7---7/9---------|

-12-----------------|-10--------------|-7-------------|-8-----------------|

--------------------|-----------------|---------------|-------------------|



VERSE 2



--------------------|-----------------|---------------|-------------|

---------------10---|-----------------|---------------|-------------|

-------9----12----9-|------7---10-9-7-|-----4---7-5-4-|-----5---4-5-|

----10---10---------|----9---9--------|---5---5-------|---7---7-----|

-12-----------------|-10--------------|-7-------------|-8-----------|

--------------------|-----------------|---------------|-------------|



VERSE 3



--------------------|-----------------|---------------|---------------|

--------------------|-----------------|-----------6---|---------------|

-------9----12-10-9-|------7---10-9-7-|-----4---7---4-|-----5-----9-7-|

----10---10---------|----9---9--------|---5---5-------|---7---7/9-----|

-12-----------------|-10--------------|-7-------------|-8-------------|

--------------------|-----------------|---------------|---------------|



CHORUS 1



-2----------|-3-----0----|

-3----------|-0-----2----|

-2----------|-0-----2----|

-0----------|-0-----2----|

------------|-2-----0----|

------------|-3----------|



-2-2-2------|-3-----0----|

-3-3-3------|-0-----2----|

-2-2-2------|-0-----2----|

-0-0-0------|-0-----2----|

------------|-2-----0----|

------------|-3----------|





BRIDGE 1



-7---7-7-7-7--7---7-7-7-7-|-5---5-5-5-5--7--7--5--7-|

-5---5-5-5-5--5---5-5-5-5-|-3---3-3-3-3--5--5--3--5-|

-0---0-0-0-0--0---0-0-0-0-|-4---4-4-4-4--6--6--4--6-|

-7---7-7-7-7--7---7-7-7-7-|-5---5-5-5-5--7--7--5--7-|

-7---7-7-7-7--7---7-7-7-7-|-0---0-0-0-0--0--0--0--0-|

-5---5-5-5-5--5---5-5-5-5-|-3---3-3-3-3--5--5--3--5-|



-7---7-7-7-7--7---7-7-7-7-|-5---5-5-5-5--7--7-|

-5---5-5-5-5--5---5-5-5-5-|-3---3-3-3-3--5--5-|

-0---0-0-0-0--0---0-0-0-0-|-4---4-4-4-4--6--6-| (Ends like “too early”, but John is

-7---7-7-7-7--7---7-7-7-7-|-5---5-5-5-5--7--7-| just moving to the solo)

-7---7-7-7-7--7---7-7-7-7-|-0---0-0-0-0--0--0-|

-5---5-5-5-5--5---5-5-5-5-|-3---3-3-3-3--5--5-|





SOLO



--------------|-------------------------|-------------|

----------21b-|-------------------------|-------------|

-17/20--------|-17/20----20-18-18-20/22-|-20-20p17-17-|

--------------|-------------------------|-------------|

--------------|-------------------------|-------------|

--------------|-------------------------|-------------|



-----------------------------|-------------------------|--------------------18/21-|

-------------21b-20-21b-(20)-|-21p17-17-21p17-17-21p17-17-21p17-17-21p17-17-------|

-17/20-20-20-----------------|-------------------------|--------------------------|

-----------------------------|-------------------------|--------------------------|

-----------------------------|-------------------------|--------------------------|

-----------------------------|-------------------------|--------------------------|



BRIDGE 2



-7-7-7--7-7-7--7-7-|-5-5-5--5-5-5--5-5-|

-5-5-5--5-5-5--5-5-|-3-3-3--3-3-3--3-3-|

-0-0-0--0-0-0--0-0-|-4-4-4--4-4-4--4-4-|

-7-7-7--7-7-7--7-7-|-5-5-5--5-5-5--5-5-|

-7-7-7--7-7-7--7-7-|-0-0-0--0-0-0--0-0-|

-5-5-5--5-5-5--5-5-|-3-3-3--3-3-3--3-3-|



-3-3-3--3-3-3--3-3-|-3-3-3--3-3-3--3-3-|

-1-1-1--1-1-1--1-1-|-1-1-1--1-1-1--1-1-|

-2-2-2--2-2-2--2-2-|-0-0-0--0-0-0--0-0-|

-3-3-3--3-3-3--3-3-|-3-3-3--3-3-3--3-3-|

-0-0-0--0-0-0--0-0-|-3-3-3--3-3-3--3-3-|

-1-1-1--1-1-1--1-1-|-1-1-1--1-1-1--1-1-|



CHORUS 2



-2---2-2-2-2--2---2-2-2-2-|-3---3-3-3-3--0---0-0-0-0-|

-3---3-3-3-3--3---3-3-3-3-|-0---0-0-0-0--2---2-2-2-2-| (When you play this chorus

-2---2-2-2-2--2---2-2-2-2-|-0---0-0-0-0--2---2-2-2-2-| for 4th time, do not play

-0---0-0-0-0--0---0-0-0-0-|-0---0-0-0-0--2---2-2-2-2-| the three last “A”s, cause

--------------------------|-2---2-2-2-2--0---0-0-0-0-| you have to start the

--------------------------|-3---3-3-3-3--------------| ending earlier)



ENDING



-13-12------------------13-12----------------------|

-------13--13-13-13-13--------15-15---15/13b---/15-|

---------------------------------------------------|

---------------------------------------------------|

---------------------------------------------------|

---------------------------------------------------|



-------------------15-13-12--------------------------17p13-|

-15/17/15-13-13b------------13--13/15----13h15-13h15-------|

-----------------------------------------------------------|

-----------------------------------------------------------|

-----------------------------------------------------------|

-----------------------------------------------------------|



------------------------15-13-12------------------------------------|

-15/17/15-13-13-13-13b-----------13--13/15--15-15-15-15-15p13---/17-|

--------------------------------------------------------------------|

--------------------------------------------------------------------|

--------------------------------------------------------------------|

--------------------------------------------------------------------|



----15p0--15-13-12-13--------------------------------------------------------|

-13-------------------13-13-----15---------------14-------13-------13---/19~-|

-----------------------------12----12-11--11--11----11h12----11h12------/18~-|

-----------------------------------------------------------------------------|

-----------------------------------------------------------------------------|

-----------------------------------------------------------------------------|
Added by tabs-database.com and our distinguished partners
Get this song at amazon.com      Ebay     Ringtones Ringtones  


Learn to play: Songwriting, Piano, Harmonica, Guitar
Also available at Muzikum: Red Hot Chili Peppers - The Zephyr Song Live At Slane Castle lyrics

Related Red Hot Chili Peppers Tabs

The Uplift Mofo Party Plan Bass tabs
Pretty Lil Ditty tabs
Under The Bridge - Unplugged tabs
Californication Solo VMA tabs
Battle Ship tabs
No Chump Love Sucker tabs
Dani California Guitar Tab tabs
Zephyr Song, The tabs
Brothers Cup Bass tabs
Californication Tab tabs
Don t forget me tabs
Dani tabs
If You Have To Ask Bass tabs
Subway To Venus tabs
Desecration Smile tabs
Otherside My Vh1 Music Awards tabs
Parallell Universe tabs
Stadium Arcadium tabs
Brandy tabs
Slow Cheetah Bass tabs


Guitar Tabs









All tabs are property and copyright of their owners. All tabs provided for educational purposes only. Privacy Policy, DMCA