Red Hot Chili Peppers

The Uplift Mofo Party Plan Bass Tabs



More from Red Hot Chili Peppers

Red Hot Chili Peppers Tabs
Red Hot Chili Peppers Chords
Red Hot Chili Peppers Bass
Red Hot Chili Peppers Lyrics

 Red hot chili peppers

the uplift mofo party plan

crag 14



This is a great chilis album which took a lot of time to work out riffs(skinny sweaty

but im positive the album is 100% correct with no sacrifices. Well enjoy



1.fight like a brave

2.funky crime

3.me & my friends

4.backwoods

5.skinny sweaty man

6.behind the sun

7.subterranean homesick blues

8.no chump love sucker

9.walkin on Down the road

10.love trilogy

11.organic anti beat box band





KEY:

~ - hold out note for longer than most would notice (I don't mark them every

time you hold out a note, just when it's not obvious.)

h - hammer-on

p - pull-off

/ - slide

// = slower slide (takes up more time)

b = bend

b= = bend continously

(5) - 5th fret harmonic

(7) - 7th fret harmonic

X = muted/ghost note (tends to be slapped or popped, in the Greeting Song slapped with fingers)

t - slap

P - pop



FIGHT LIKE A BRAVE



Intro/Verse

G----------------|(x3)

D-----7---7p5---7|

A-0-0---x-----0--|

E----------------|

T T P T P T P



G------------------|

D-----7---7p5p0----|

A-0-0---x---------5|

E---------------3--|

T T P T P T P



G----------------|(x3)

D-----7---7p5---7|

A-0-0---x-----0--|

E----------------|

T T P T P T P



G------------------|

D-----7---7p5p0----|

A-0-0---x---------5|

E---------------3--|

T T P T P T P



G----------------|(x3)

D-----7---7p5---7|

A-0-0---x-----0--|

E----------------|

T T P T P T P



G------------------|

D-----7---7p5p0----|

A-0-0---x---------5|

E---------------3--|

T T P T P T P



G----------------|(x3)

D-----7---7p5---7|

A-0-0---x-----0--|

E----------------|

T T P T P T P



G------------------|

D-----7---7p5p0----|

A-0-0---x---------5|

E---------------3--|

T T P T P T T





Chorus

G--------------------|

D---9-9p7-9p7--------|

A-------------9------|

E-7-------------10-5-|



G--------------------|

D---9-9p7-9p7--------|

A-------------9------|

E-7-------------10-7-|



G--------------------|

D---9-9p7-9p7--------|

A-------------9------|

E-7-------------10-5-|



G-----------------|

D---9-9p7---------|

A---------9-------|

E-7---------10-5-0|



G----------------|(x3)

D-----7---7p5---7|

A-0-0---x-----0--|

E----------------|

T T P T P T P



G------------------|

D-----7---7p5p0----|

A-0-0---x---------5|

E---------------3--|

T T P T P T T





Guitar Solo

G---------7------|

D-5h6-----------7|

A-----7----------|

E-------0---0-0--|

T T T P T T P



G---------7----------------|

D-5h6-----------6---7---7--|

A-----7-----------7---5---4|

E-------0---0-0------------|

T T T P T T P T P T P T



G---------7------|

D-5h6-----------7|

A-----7----------|

E-------0---0-0--|

T T T P T T P



G---------7----------------|

D-5h6-----------6---7---7--|

A-----7-----------7---5---4|

E-------0---0-0------------|

T T T P T T P T P T P T



G---------7------|

D-5h6-----------7|

A-----7----------|

E-------0---0-0--|

T T T P T T P



G---------7----------------|

D-5h6-----------6---7---7--|

A-----7-----------7---5---4|

E-------0---0-0------------|

T T T P T T P T P T P T



G---------7------|

D-5h6-----------7|

A-----7----------|

E-------0---0-0--|

T T T P T T P



G---------7----------------|

D-5h6-----------6---7---7--|

A-----7-----------7---5---4|

E-------0---0-0------------|

T T T P T T P T P T P T



G---------7------|

D-5h6-----------7|

A-----7----------|

E-------0---0-0--|

T T T P T T P



G---------7----------------|

D-5h6-----------6---7---7--|

A-----7-----------7---5---4|

E-------0---0-0------------|

T T T P T T P T P T P T



G---------7------|

D-5h6-----------7|

A-----7----------|

E-------0---0-0--|

T T T P T T P



G-----------7------|

D---5h6------------|

A-------7---------5|

E-0-------0---0-3--|

T P T T P T T T



FUNKY CRIME



Intro:



G----------------------------------|

D----------------------------------|

A--0~----------2~----------1~------|

E--------1~----------3~--------4---|



Verse :



G--------------------------------|--------------------------------|

D--------------------------------|--------------------------------|

A-4-4-4-4-5-5-6-7----------------|-4-4-4-4-5-5-6-7---0---x-4h5----| (x4)

E--------------------------------|--------------------------------|





Chorus :



G--------------------------------|--------------------------------|

D--------------------------------|--------------------------------|

A-4-5-4---4----------------------|-4-5-4---4-------------x-7-7-7-7| (x2)

E-------6---6---5---4------------|-----------6---5---4------------|





Verse : x4



Chorus : x1



Bridge :



G--------------------------------|--------------------------------|

D--------------------------------|-1-1-1-1-2-2-3-4----------------|

A--------------------------------|--------------------------------| (x4)

E-2-2-2-2-2-2-2-2----------------|-------------------5-----0h2----|





Interlude : x5

T T T T P T T T T T T

G------------------------2-------|--------------------------------|

D-----4-----------4-2-------4----|-----2--------------------------|

A---------------------4----------|---------------------------0----|

E--------------------------------|-------------------0---2-------2|



T T T T P T P P P P

G------------------------2-------|-------------------6---4---2----|

D-----4-----------4-2-------4----|-------------------------------3|

A---------------------4----------|--------------------------------|

E--------------------------------|--------------------------------|





T T T T P T T T T P T

G------------------------2-------|--------------------------------|

D-----4-----------4-2-------4----|-----2--------------------------|

A---------------------4----------|-------------------------0------|

E--------------------------------|-------------------0h2-x-------2|



T T T T P T T T T T

G------------------------2-------|--------------------------------|

D-----4-----------4-2-------4----|------------------1---2---3---4-|

A---------------------4----------|--------------------------------|

E--------------------------------|--------------------------------|





T T T T T T T T

G---2---1---0--------------------|--------------------------------|

D---------------4---3---2---1----|-----------------0--------------|

A--------------------------------|--------------------------------|

E--------------------------------|--------------------------------|





Verse : x4



Chorus : x2



Outro :



G--------------------------------|--------------------------------|

D--------------------------------|--------------------------------|

A-4-4-4-4-5-5-6-7----------------|-4-4-4-4-5-5-6-7---0---x-4h5----|

E--------------------------------|--------------------------------|



G--------------------------------|--------------------------------|

D--------------------------------|--------------------------------|

A-4-4-4-4-5-5-6-7---7-----5h7----|-------------------4---x-7-5-7--|

E--------------------------------|-0-0-0-0-0-0-0-0----------------|



ME & MY FRIENDS





INTRO



G|---------9----------11--|----------9----------11--|--11-9----11-9------|

D|----/10--------/10------|-----/10--------/10------|-------10------10---|

A|-0----------0-----------|--0----------0-----------|--------------------|

E|------------------------|-------------------------|--------------------|



G|--11-9----11-9----11-9----11--|--9----11-9----11-9------|

D|-------10------10------10-----|----10------10------10---|

A|------------------------------|-------------------------|

E|------------------------------|-------------------------|



CHORUS

G|-----------------------------------|-----------------------------------|

D|--7-5---7-5---7-5---7-5---7-5---5--|---------5---------------5---------|

A|------7-----7-----7-----7-----7----|--5--5-5---5-5-5-5-5-5-5---5-5-5---|

E|-----------------------------------|-----------------------------------|



VERSE

G|-----------------------------------|------------------------------------|

D|-----------------------------------|------------------------------------|

A|----------5-5-5-5-------5-5-5-5-5--|----------5-5-5-5-------5-5-5-5-5---|

E|--0-0-0-0---------0-0-0------------|--0-0-0-0---------0-0-0-------------|



After Guitar Solo:



G|-----------------------------------|-----------------------------------|

D|-----------------------------------|-----------------------------------|

A|--7-5---7-5---7-5---7-5---7-5---5--|---------5---------------5---------|

E|------7-----7-----7-----7-----7----|--5--5-5---5-5-5-5-5-5-5---5-5-5---|



G|-----------------------------------|-----------------------------------|

D|-----------------------------------|-----------------------------------|

A|--7-5---7-5---7-5---7-5---7-5---5--|---------5---------------5---------|

E|------7-----7-----7-----7-----7----|--5--5-5---5-5-5-5-5-5-5---5-5-5---|



G|-----------------------------------|

D|-----------------------------------|

A|---------5---------------5---------|

E|--5--5-5---5-5-5-5-5-5-5---5-5-5---|



INTERLUDE



G|---------------------------------|----------------------------------|

D|---------------------------------|----------------------------------|

A|--3/5-5-3/5-5-3/5-5-3/5-5-3/5-5--|--3/5-5-3/5-5-3/5-5-3/5-5-3/5-5---|

E|---------------------------------|----------------------------------|





BACKWOODS





MAIN RIFF

G-|-----------------------|-----------------------|

D-|-----4--4--4--4---4--4-|-----4--4--4--4---4--4-|

A-|-----------------------|-----------------------|

E-|-2-x------------2------|-2-x------------2------|

T T P P P P T P P T T P P P P T P P



Chorus:

G-|--------------------------|-------------------------|

D-|-------2--------7-------9-|-------2--------7------9-|

A-|--------------------------|-------------------------|

E-|-2--2----2--5-5----7-7----|-2--2----2--5-5----7-7---|

T T P T T T P T T P T T P T T T P T T P



Interlude:

G-|---------------------------------|

D-|---------------------------------|

A-|---------------------------------|

E-|-5h7-5h7-5h7-5h7-5h7-5h7-5h7-5h7-|





Bridge:

G-|--------------------------------|-----------------------------------|

D-|--------------------------------|-----------------------------------|

A-|--------------------------------|-----------------------------------|

E-|-2--x-2--2--2--2-2--x-2--2--2-2-|-2--x-2--2--x-2--0/2-2--0/2-2--2-2-|

T T T T T T T T T T T T T T T T T T T T T T T T



G-|--------------------------------|-----------------------------------|

D-|--------------------------------|--------------4------4---------2h4-|

A-|--------------------------------|-----------------------------------|

E-|-2--x-2--2--2--2-2--x-2--2--2-2-|-2--x-2--2--x---2--2---2--x--2-----|

T T T T T T T T T T T T T T T T T P T T P T T T P

Played with varitions. Frequently used variations showed below.



G-|-------------------------------|--------------------------------|

D-|-----------4--4----------------|--------------------------------|

A-|-------------------------------|--------------------------------|

E-|-2--x-2--2--2---x--2-x--0--2-2-|-2/5/7\5/8\2/12\-2--x-2--2--x-2-|

T T T T PT P T T T T T T T T T T T T T T T T



G-|------------4------------------|-----------------------------------|

D-|----------4--------------------|---------------------------------4-|

A-|--------------x----------------|-----------x--0--2-----------------|

E-|-2--x-2-2-------2--x-2--2--x-2-|-2--x-2--2----------2--x-2-2--2----|

T T T T P P T T T T T T T T T T T T T T T T T T T P



Ending:

G-|------------------------|------------------------|------------|

D-|-------2--------7-----9-|-------2--------7-----9-|------------|

A-|------------------------|------------------------|------2-----|

E-|-2--2----2--5-5---7-7---|-2--2----2--5-5---7-7---|-2--2----2--|

T T P T T T P T T P T T P T T T P T T P T T T T





SKINNY SWEATY MAN



main riff

G|-------0---0--------0---9---|

D|----------------------------|

A|-5h7---------5h7-0----------|

E|-----0---0------------0-----|

t t p t p t t p t p

chorus

G|----------------------------9--|

D|-12--11---9--7--5-6-7-9--------|

A|------------------------7-7----|

E|-------------------------------|



bridge

G|----------------------------------------7---9-7--|

D|---------5----------7----------5----------9------|

A|-7-5-7-5----7-5-7-5-7--7-5-7-5----7-5-7----------|

E|-------------------------------------------------|



G|----------------------------------------------|

D|---------5----------------------5----------7--|

A|-7-5-7-5---7-5-7--------7-5-7-5----7-5-7-5----|

E|-----------------7-6-5------------------------|





BEHIND THE SUN

Intro

G------------------------|

D------------------------|

A------------------------|

E-0-x--0--0-x--0-0-0-0--x|

T T T T T T T T T T



G-----------------------------------------|

D-----------------------------------------|

A-----------------------------------------|

E-17p16-15-14--13-12-11-11p10-10p9-9-9-8-7|

T T T T T T T T T T T T



G-------------------------------|

D-------------------------------|

A-------------------------------|

E-7-6-6--5-5-4-4p3-3-3-3-3p2p1p0|

T T T T T T T T T T T



G------------------------|

D------------------------|

A------------------------|

E-0-x--0--0-x--0-0-0-0--x|

T T T T T T T T T T





Chorus

G--------------------------|

D--------------------------|

A-----------x-4--4-4-4-4--x|

E-5--5--5-5----------------|



G---------------------------|

D---------------------------|

A-5--x-5--5--(0)---------5h7|

E----------------9-7-5h7----|



G------------------------|

D------------------------|

A------------------------|

E-0-x--0--0-x--0-0-0-0--x|



G--------------------------|

D--------------------------|

A-----------x-4--4-4-4-4--x|

E-5--5--5-5----------------|



G---------------------------|

D---------------------------|

A-5--x-5--5--(0)---------5h7|

E----------------9-7-5h7----|



G------------------------|

D------------------------|

A------------------------|

E-0-x--0--0-x--0-0-0-0--x|



G--------------------------|

D--------------------------|

A-----------x-4--4-4-4-4--x|

E-5--5--5-5----------------|



G---------------------------|

D---------------------------|

A-5--x-5--5--(0)---------5h7|

E----------------9-7-5h7----|



G------------------------|

D------------------------|

A------------------------|

E-0-x--0--0-x--0-0-0-0--x|



G-9h11-9---------------------|

D--------11p9-7-9h11-9-------|

A----------------------11p9-7|

E----------------------------|



G-----------------------|

D-----------------------|

A-9h11-9-9-7---------5h7|

E------------9-7-5h7----|



G------------------------|

D------------------------|

A------------------------|

E-0-x--0--0-x--0-0-0-0--x|



SUBTERRANEAN HOMESICK BLUES



Intro:

G]------------------------------------------------------------------]

D]------------------------------------------------------------------]

A]---------4-5--4-5-4------7----5----------------4-5--4-5-----------]

E]---0-----------------0-----------6--3---2---0------------0--3--2--]



G]------------------------------------------------------------------]

D]------------------------------------------------------------------]

A]---------4-5--4-5-4------7----5----------------4-5--4-5-----------]

E]---0-----------------0-----------6--3---2---0------------0--3--2--]



G]------------------------------------------------------------------]

D]------------------------------------------------------------------]

A]---------4-5--4-5-4------7----5----------------4-5--4-5-----------]

E]---0-----------------0-----------6--3---2---0------------0--3--2--]



G]------------------------------------------------------------------]

D]------------------------------------------------------------------]

A]---------4-5--4-5-4------7----5----------------4-5--4-5-----------]

E]---0-----------------0-----------6--3---2---0------------0--3--2--]



G]------------------------------------------------------------------]

D]------------------------------------------------------------------]

A]---------4-5--4-5-4------7----5----------------4-5--4-5-----------]

E]---0-----------------0-----------6--3---2---0------------0--3--2--]



G]--------------------------------------]

D]--------------------------------------]

A]---------4-5--4-5-4------7----5-------]

E]---0-----------------0-----------6--3-]



look i cant find my cd but i know u just keep hitting the A

in the amount times needed its not hard

Chorus:

G]------------------------------------------------------------------]

D]------------------------------------------------------------------]

A]------------------------------------------------------------------]

E]---17\----5-----5---5---5-----5---5---5---5---5----5----5--5----5-]



u just play the amount of times there

its not hard to imterperate



Bridge:

G]------------------------------------------------------------------]

D]------------------------------------------------------------------]

A]------------------------------------------------------------------]

E]--8---8--8-8-8--8--8-8--8---8--8-8-8-8----8---8----8--------------]



again just play the notes when heard



Interlude:



G]-----------------------------------------------------------------]

D]-----------------------------------------------------------------]

A]-----------------------------------------------------------------]

E]--0-2--2-------0-2--2-----0--2--2------0--2--2-------------------]



G]-----------------------------------------------------------------]

D]-----------------------------------------------------------------]

A]-----------------------------------------------------------------]

E]--0--2-0-2/12--0--2---0--2/14--0-2---0-2/12\10/16---0-2-0-2/12---]



G]-----------------------------------------------------------------]

D]-----------------------------------------------------------------]

A]-----------------------------------------------------------------]

E]--0--2-0-2/12--0--2---0--2/14--0-2---0-2/12\10/16---0-2-0-2/20\0-]



NO CHUMP LOVE SUCKER



Intro:





G-|----------------------------|-----------------7-----------|

D-|--------0h2----------0h2----|--------0h2----5-------7\----|

A-|----------------------------|---------------------5-------|

E-|--0---x-----0--0---x-----0--|--0---x-----0----------------|

T T P T T T P T T T P T T P T P



G-|----------------------------|-----------------7-----------|

D-|--------0h2----------0h2----|--------0h2----5-------7\----|

A-|----------------------------|---------------------5-------|

E-|--0---x-----0--0---x-----0--|--0---x-----0----------------|

T T P T T P P T T T P T T P T P





Verse: 1, 2, 3 & 4





G-|----------------------------|-----------------7-----------|

D-|--------0h2----------0h2----|--------0h2----5-------7\----|

A-|----------------------------|---------------------5-------|

E-|--0---x-----0--0---x-----0--|--0---x-----0----------------|

T T P T T T P T T T P T P P T P



G-|----------------------------|-----------------7-----------|

D-|--------0h2----------0h2----|--------0h2----5-------7\----|

A-|----------------------------|---------------------5-------|

E-|--0---x-----0--0---x-----0--|--0---x-----0----------------|

T T P T T T P T T T P T P P T P





Chorus: 1, 2





G-|------------------------|------------------------|

D-|------------------------|------------------------|

A-|------------------------|------------------------|

E-|--5-5-5-5--5--5\--------|--5-5-5-5--5--5\--------|





G-|------------------------|---------------------------|

D-|------------------------|---------------------------|

A-|------------------------|----3---3---3---3---3---3--|

E-|--3-3-3-3--3--3\--------|---------------------------|



Chorus: 3





G-|-----12----12----------------|----11---11---------------|

D-|-----------------------------|--------------------------|

A-|--10----10-----9--10\--------|--9----9-----8--9\--------|

E-|-----------------------------|--------------------------|

T P T P T T T P T P T T



G-|----10---10---------------|----9---9---9-------------|

D-|--------------------------|--------------------------|

A-|--8----8-----7--8\--------|--7---7---7---7-5\--------| X2

E-|--------------------------|--------------------------|

T P T P T T T P T P T P T T



G-|----7--------6----------|---------------------------|

D-|------------------------|---------------------------|

A-|--5---5----4---4--------|----3---3---3---3---3---3--|

E-|------------------------|---------------------------|

T P T T P T



Interlude:





G-|------------------------|----------------------|

D-|------------------------|----------------------|

A-|------------------------|------------3---------|

E-|--5---------------------|-----------------3----|





G-|------------------------|----------------------|

D-|------------------------|----------------------|

A-|------------------------|--3---------3---------|

E-|--5---------------------|-------3---------3----|





G-|------------------------|----------------------|

D-|------------------------|----------------------|

A-|------------------------|------------3---------|

E-|--5---------------------|-----------------3----|





G-|------------------------|----------------------|

D-|------------------------|----------------------|

A-|------------------------|--3---------3---------|

E-|--5---------------------|-------3---------3----|





Last Chorus:





G-|----------------------------|-----------------7-----------|

D-|--------0h2----------0h2----|--------0h2----5-------7\----|

A-|----------------------------|---------------------5-------|

E-|--0---x-----0--0---x-----0--|--0---x-----0----------------|

T T P T T T P T T T P T T P T P



G-|----------------------------|-----------------7-----------|

D-|--------0h2----------0h2----|--------0h2----5-------7\----|

A-|----------------------------|---------------------5-------|

E-|--0---x-----0--0---x-----0--|--0---x-----0----------------|

T T P T T P P T T T P T T P T P



G-|----------------------------|-----------------7-----------|

D-|--------0h2----------0h2----|--------0h2----5-------7\----|

A-|----------------------------|---------------------5-------|

E-|--0---x-----0--0---x-----0--|--0---x-----0----------------|

T T P T T T P T T T P T T P T P



G-|----------------------------|-----------------7-----------|

D-|--------0h2----------0h2----|--------0h2----5-------7\----|

A-|----------------------------|---------------------5-------|

E-|--0---x-----0--0---x-----0--|--0---x-----0----------------|

T T P T T P P T T T P T T P T P



G-|----------------------|-----------------------------|

D-|--5---------6---------|--7--------------------------|

A-|-------5---------6----|-------7\--------------------|

E-|----------------------|-----------------------------|



WALKIN ON DOWN THE ROAD



Intro and verse 1

G|----7h8-5-----5-------7h8-5-------5h6p5-5-|

D|------------7---7--------------5h7--------|

A|-0--------0--x-x---0---------0---------0--|

D|------------------------------------------|

T P P T PTPTP T P P T P P TP



Chorus 1

G|-------------------|

D|-------------------|

A|-0----0----0-0---0-|

D|---------------5---|



G|-------------------|

D|-------------------|

A|-0----0----------0-|

D|------------0--0---|



Verse 2

G|----7h8-5-----5-------7h8-5-------5h6p5-5-|

D|------------7---7--------------5h7--------|

A|-0--------0--x-x---0---------0---------0--|

D|------------------------------------------|

T P P T PTPTP T P P T P P TP



Chorus 2

G|-------------------|

D|-------------------|

A|-0----0----0-0---0-|

D|---------------5---|



G|-------------------|

D|-------------------|

A|-0----0----------0-|

D|------------0--0---|



Interlude (guitarsolo)

G|-------------------------------|-------------------------------|

D|-----7---5-5-5-5---5-5-5---7-7-|-----7---5-5-5-5-----------2-2-|

A|-0-0---0---------0-------0-----|-0-0---0---------0-3-3-5-0-----|

D|-------------------------------|-------------------------------|



G|-------------------------------|-------------------------------|

D|-----7---5-5-5-5---5-5-5---7-7-|-----7---5-5-5-5---------------|

A|-0-0---0---------0-------0-----|-0-0---0---------0-9-9-9-0-7-7-|

D|-------------------------------|-------------------------------|



G|-------------------------------|

D|-----7---5-5-5-5---5-5-5---7-7-|

A|-0-0---0---------0-------0-----|

D|-------------------------------|



G|------------------------------------|

D|-5---5---7---7---10----10----5---5--|

A|------------------------------------|

D|----5-5-----7-7------10--10-----5-5-|



G|-------------------------------------------|

D|-5---5---7---7---10----10----9---9---9---9-|

A|-------------------------------------------|

D|----5-5-----7-7------10--10----------------|



Chorus 3

G|-------------------|

D|-------------------|

A|-0----0----0-0---0-|

D|---------------5---|



G|-------------------|

D|-------------------|

A|-0----0----------0-|

D|------------0--0---|



Verse 3

G|----7h8-5-----5-------7h8-5-------5h6p5-5-|

D|------------7---7--------------5h7--------|

A|-0--------0--x-x---0---------0---------0--|

D|------------------------------------------|

T P P T PTPTP T P P T P P TP



Outro

G|---------------------|

D|---------------------|

A|-2h3p2--0-0--------0-|

D|-------------5--4-5--|



G|-----------------------|---------------------|

D|-----------------x-2-2-|---------------------|

A|-2h3p2--0-0------------|-2h3p2--0-0--------0-|

D|-------------5--4------|-------------5--4-5--|



G|---------------------|--------------------------|

D|-----------------4-5-|--------------------------|

A|-2h3p2--0-0----------|-2h3p2--0-0-------------0-|

D|-------------5-4-----|-------------5--4-5-4-5---|



G|---------------------------|

D|---------------5--7--------|

A|-2h3p2--0-0---------5-7----|

D|-------------5---------5-7-|



G|---------------------|

D|---------------------|

A|-2h3p2--0-0--------0-|

D|-------------5--4-5--|



LOVE TRILOGY



G|-----------------------------------------------------------------------|

D|-----------------------------------------------------------------------|

A|-----------------------------------2-2--------5-5--------2-2-------5-5-|

E|-0---0----0----0-----0-------0-0-0------3-3-3------0-0-0-----3-3-3-----|



G|---------------------------------------------------------------------|

D|---------------------------------------------------------------------|

A|-------2-2-------5-5---------2-2------5-5--------2-2------5-5--------|

E|-0-0-0-----3-3-3-------0-0-0-----3-3-3-----0-0-0-----3-3-3-----------|



G|--------------------------------------------------------------------------|

D|--------------------------------------------------------------------------|

A|-...-------2-2-----5-5-4-4-2-2---------2-2------5-5-4-4-2-2------...------|

E|-...0-0-0-0----3-3-------------0-0-0-0-----3-3--------------0-0--0-0...---|



G|---------------------------------------------------------------------|

D|---------------------------------------------------------------------|

A|-5-5-4-4-2-2--5-5-4-4-2-2-5-5-4-4-2-2-5-5-4-4-2-0--------------------|

E|--------------------------------------------------3-0----------------|



G|--14^-12-----------------------7/9-----7-----------9-----6------6h7--|

D|-------------12----------------7/9-7-5---7---------------------------|

A|----------14-----14-0-*--------------------7-----7---7-7----7-7------|

E|-----------------------12--------------------------------------------|



G|---------------------------------------7-9-------7h9-0----4-5-7-------|

D|-h7--7h9p7p*-----------5-----7----------------------------------------|

A|-------------7------------------------------0-7---------7-------7-----|

E|-------------------3/7----/9----0-0-----------------------------------|



G|--7h9-0---7-9-------|

D|--------------------|

A|--------7-----0-7---|

E|--------------------|



G|-7-9-------7h9-0----4-5-7---------------|

D|----------------------------------------|

A|-------0-7---------7-------7------------|

E|----------------------------------------|



Verse 2

G|----------------------------------------------------------------------|

D|----------------------------------------------------------------------|

A|----------------------------------------------------------------------|

E|--7-7-7-7-7-7-7-7-7-7-7-7-7-7-7-7-7-5-5-5-5-5-5-5-5-5-5-5-5-5-5-5-----|etc



Outro

G|---------------------------------------------------------------------|

D|----6---6h7-6--------4---4h5-4---------2---2h3-2---------------------|

A|--7---7-------7-0--5---5-------5-0---3---3-------3---0---------------|

E|---------------------------------------------------0-----------------|



ORGANIC ANTI BEAT BOX BAND



Verse

G------------------------------|-----------|-------|-----------|

D-------2--2--5---7------2---2-|----5---7--|-------|----7---5--|

A------------------------------|-----------|-------|-----------|

E-00--0--0------3---00-0--0----|-33---55---|-6-5-3-|-55---33---|



Verse fill 1

G-----------|

D----5---7--|

A-----------|

E-33---55---|



Verse fill 2

G-------|

D-------|

A-------|

E-6-5-3-|



Verse fill 3

G-----------|

D----7---5--|

A-----------|

E-55---33---|



Chorus

G--4-4-4-------4-4-4-------4-4-4-------4-4-4---------------------------------|

D----------------------------------------------------------------------------|

A-2-----2--2--------2--2--------2--2--------5--5--4-5--7---5-7-7-5-7-7-5-7---|

E----------------------------------------------------------------------------|



Solo

G--------------------------|

D-4--2---------------------|

A-------5--4--2-------2----|

E----------------5-5-----3-|





Thanks for viewing. check out my updated chilis greatist hits aswell

crag 14Added by tabs-database.com and our distinguished partners
Get this song at amazon.com      Ebay     Ringtones Ringtones  


Learn to play: Songwriting, Piano, Harmonica, Guitar
More Red Hot Chili Peppers lyrics available at Muzikum

Related Red Hot Chili Peppers Tabs

Around The World Outro tabs
What Is Soul Intro tabs
Bicycle Song tabs
Gong Li tabs
This Velvet Glove (3) tabs
Fight Like A Brave (2) tabs
Out In La (2) tabs
The Zephyr Song Live At Slane Castle tabs
I Could Die For You (2) tabs
Tear (3) tabs
Desecration Smile tabs
If tabs
Havana Affair (the Ramones Cover) tabs
Sir Psycho Sexy tabs
Easily Live tabs
Out In La tabs
Dani California tabs
Annie Wants A Baby tabs
Mommy Wheres Daddy Bass tabs
Brandy Live tabs


Guitar Tabs









All tabs are property and copyright of their owners. All tabs provided for educational purposes only. Privacy Policy, DMCA