Red Hot Chili Peppers

The Song That Made Us What We Are Today Bass Tabs



More from Red Hot Chili Peppers

Red Hot Chili Peppers Tabs
Red Hot Chili Peppers Chords
Red Hot Chili Peppers Bass
Red Hot Chili Peppers Lyrics



The tab has now been corrected by me so everything is lined up properly.

Riff 1 (main riff)

g:-------------------------------------------------------
d:-------------------------------------------------------
a:---------------------------------3--1------------------
e:--1--3--3------------1--3--1--3------------1--3--3-----

g:---------------------
d:---------------------
a:--5--3--5--3--5--3---
e:---------------------

Riff 2 – first heard 0.52

g:---------------------------------------------------------------------
d:---------------------------------------------------------------------
a:---------------------------------------------------------------------
e:--3--1--3--1--3--1--3--1--3--1--3--1--3--1--3--1--3--1--3--0--1--3---

Riff 3 – 2.30

g:----------------------------------------------------------------------------
d:----------------------------------------------------------------------------
a:-----------------------------------------------------10--8--10--8--10--8----
e:--10--8--10--10----10--8--10--10----10--8--10--10---------------------------

Riff 4 – 2.50

g:-------------------------------------
d:------------------------------------- x however many
a:--8--10--8--10--8--10--8--10--8--10--
e:-------------------------------------

Riff 5 – 4.47

g:-------------------------------------------------------------------------
d:----------------15--14--15--14---------------------16--15--16--15--------
a:--14--14--14----------------------15--14--14--14---------------------16--
e:-------------------------------------------------------------------------

Riff 6 – 6.23

g:--------------5-----------------------------------------------
d:--------------3-----------------------------------------------
a:--------------------------------------------------------5--3--
e:----3----3---------3----3----3----3----3----5--3--5--3--------
P P P P P P P P




Riff 7 - 7.29

g:-------------------------------------
d:------------------------------------- x lots
a:-------------------------------------
e:--8--10--8--10--8--10--8--10--8--10--

then at 8.00

g:------------------------------------------------------------------
d:------------------------------------------------------------------
a:------------------------------------------------------------------
e:--12--12--12--12--12--12--12--12--12--12--12--12--12--12--12--12--

then riff 1 x 1
then riff 8 – 8.03

g:------------10--0--9--0--7--0--5--0--------------3--0--5--0--7--0--
d:-------------------------------------------------------------------
a:-------------------------------------------------------------------
e:--1--3--3------------------------------1--3--3---------------------

g:------------10--0--9--0--7--0--5--0-----------9--0--10--0--9--0--10--0--
d:------------------------------------------------------------------------
a:------------------------------------------------------------------------
e:--1--3--3---------------------------1--3--3-----------------------------

Riff 9 – 8.49

g:---------------------------------
d:---------------------------------
a:---------------------------------
e:----3-3---3-3---3-3---3-3---3-3--
S S S S S S S S S S

Riff 10 – 10.33

g:--7--7--7-----------------------------------
d:-----------5--7--7-----5--------------------
a:--------------------5-----5--5--4--4--4--4--
e:--------------------------------------------

Riff 11 – 11.30

g:----------------------------
d:--------------3----------3--
a:----------------------------
e:--1------1h3-------1h3------
S S P S P
Riff 12 – 11.41

g:----------------------------
d:---------3------------3--3--
a:----------------------------
e:--3p1----------3p1----------
S P S P P

Riff 13 – 11.52

g:-----------------------------------------------------------6p4----
d:-------7--8--7--5---------7--7------------7--8--7--5--------------
a:--5-----------------5-----------------5---------------5-----------
e:------------------------------------------------------------------

ends on some high notes

Taken from The BassMasta -- http://www.tabs-database.com



Get this song at amazon.com      Ebay     Ringtones Ringtones  


Learn to play: Songwriting, Piano, Harmonica, Guitar
More Red Hot Chili Peppers lyrics available at Muzikum

Related Red Hot Chili Peppers Bass Tabs

Suck My Kiss bass
Religion bass
Savior bass
Mellowship Slinky In Bminor bass
Desecration Smile bass
Hyde Park: Bass Solo #1 bass
Catholic School Girls Rule bass
Quick Jam bass
My Lovely Man bass
Funky Flea Solo bass
Higher Ground (complete) bass
All Around The World (excently Perfect) bass
Simple Nice bass
Mellowship Slinky In B Flat bass
Yertle The Turtle bass
Spell Correctly bass
Soul To Squeeze (perfecto!!) bass
Special Secret Song Inside bass
Subway To Venus (complete) bass
Purple Stain(complete) bass


Guitar Tabs









All tabs are property and copyright of their owners. All tabs provided for educational purposes only. Privacy Policy, DMCA