Red Hot Chili Peppers

The Righteous And The Wicked Bass Tabs



More from Red Hot Chili Peppers

Red Hot Chili Peppers Tabs
Red Hot Chili Peppers Chords
Red Hot Chili Peppers Bass
Red Hot Chili Peppers Lyrics

G------------------------------------------]
D------------------------------------------]
A-5-5-5--------------5-5-5-5--------7------]
E-------7-5-7-0-0-0----------7-5-7-0-------]

G------------------------------------------]
D------------------------------------------]
A-5-5-5--------------5-5-5-5---------------]
E-------7-5-7-0-0-0----------7-5-7-0-0-0---]
                                             X2
                   Verse
G------------------------------------------]
D------------------------------------------]
A-5-5-5--------------5-5-5-5--------7------]
E-------7-5-7-0-0-0----------7-5-7-0-------]

                   Chorus
G------------------------------------------]
D------------------------------------------]
A-2-2-5-2-2-5-2-2-5-3-3-3-5-2-2-5-2-2-5-2-2]
E------------------------------------------]

G------------------------------------------]
D------------------------------------------]
A-5-3-3-3----------------------------------]
E------------------------------------------]
Get this song at amazon.com      Ebay     Ringtones Ringtones  


Learn to play: Songwriting, Piano, Harmonica, Guitar
Also available at Muzikum: Red Hot Chili Peppers - The Righteous And The Wicked lyrics

Related Red Hot Chili Peppers Bass Tabs

Can't Stop Bass Tab bass
Wet Sand bass
Under The Bridge (not Live) bass
If You Have To Ask bass
Blood Sugar Sex Magik (whole Album) bass
Good Time Boys bass
Slow Cheetah bass
Black Cross bass
Jungle Man bass
Rolling Sly Stone Live bass
Knock Me Down bass
Save The Population bass
Pea (live) bass
The Greeting Song bass
Buckle Down bass
Cant Stop bass
After Hours bass
True Men Don't Kill Coyotes bass
Hollywood bass
Suck My Kiss! Awesome bass


Guitar Tabs









All tabs are property and copyright of their owners. All tabs provided for educational purposes only. Privacy Policy, DMCA