Red Hot Chili Peppers

The Righteous And The Wicked(4 String) Bass Tabs



More from Red Hot Chili Peppers

Red Hot Chili Peppers Tabs
Red Hot Chili Peppers Chords
Red Hot Chili Peppers Bass
Red Hot Chili Peppers Lyrics



Artist: Red Hot Chili Peppers
Song: The righteous and the wicked(4 string)
Tabbed by: Ebin
|-----------------------------------------------------------------------------|
|-----------------------------------------------------------------------------|
|--5--5--5--2--0--2------------5--5--5--5---2--0--2-----2--------------|
|-----------------------0--0--0---------------------------0-----------------|

|------------------------------------------------------------------------------------|
|-------------------------------------------------------------232--02p0------|
|--5--5--5--2--0--2------------5--5--5--5--2--0--2-----------------------------|
|-----------------------0--0--0--------------------------0----------------------0--|

|-----------------------------------------------------------------------------|
|-------------------------------------------------------------2---------------|
|--5--5--5--2--2--2------------5--5--5--5--2--0--2----------------------|
|-----------------------0--0--0--------------------------0------------------|

|-----------------------------------------------------------------------------|
|-----------------------------------------------------------------------------|
|--2--5--2--0--5--2--0--5--2--0--2--3--3--3--5-------------------------|
|-----------------------------------------------------------------------------|

|---------------------------------------------------------------------------------|
|---------------------------------------------------------------------------------|
|---------------------------------------------------------------------------------|
|--7--7--5--4--4--2--1--1--2--22---7--7--5--4--4--2--1--1--2--2--2--|

|--7--8--7-----7--8--7-----7h8p7----------------------7h8p7----------------|
|------------9------------9-----------9--7------------7-----------9-------------|
|---------------------------------------------9--8--9-----------------------------|
|----------------------------------------------------------------------------------|

|--9--10--9-------9--10--9-------9h10p9-----------------------9h10p9------|
|--------------11--------------11-------------11--9-----------9-----------------|
|-------------------------------------------------------11--10--------------------|
|-----------------------------------------------------------------------------------|

|--7--8--7-----7--8--7-----7h8p7------------------------------------------------|
|------------9------------9-----------9--7------------7----------------------------|
|---------------------------------------------9--8--9-------------------------------|
|-------------------------------------------------------------------------------------|



Get this song at amazon.com      Ebay     Ringtones Ringtones  


Learn to play: Songwriting, Piano, Harmonica, Guitar
More Red Hot Chili Peppers lyrics available at Muzikum

Related Red Hot Chili Peppers Bass Tabs

Quixoticelixer bass
Love Rollercoaster bass
Ethiopia bass
The Righteous And The Wicked bass
By The Way (tabbed From Notes) bass
She's Only 18 bass
Tear bass
Transcending bass
Dosed bass
Hump De Bump Bass bass
Good Time Boys bass
I Could Have Lied bass
Cant Stop bass
Mellowship Slinky In B Flat bass
Out Of Range bass
Pea (live) bass
My Lovely Man bass
Sikamikanico bass
Fleas Funkadelic Jam bass
The Adventures Of Raindance Maggie bass


Guitar Tabs









All tabs are property and copyright of their owners. All tabs provided for educational purposes only. Privacy Policy, DMCA