Red Hot Chili Peppers

The Handclapping Song Live Tabs



More from Red Hot Chili Peppers

Red Hot Chili Peppers Tabs
Red Hot Chili Peppers Chords
Red Hot Chili Peppers Bass
Red Hot Chili Peppers Lyrics



Author/Artist: Red Hot Chili Peppers
Title: The Handclapping Song (The Meters Cover)
Album: Live
Transcribed by: Greenie 12
Email: onkel44@hotmail.com




Fig. 1:


e-|--------------------------------------|----------------------------------------------|-
B-|----9--7----9----7------------7--9----|------9--7----9----7--------------------------|-
G-|----9--7----9----7------------7--9----|------9--7----9----7--------------------------|-
D-|----------------------9----9----------|------------------------9--8--7--5------------|-
A-|--------------------------------------|--------------------------------------5--7----|-
E-|--------------------------------------|----------------------------------------------|-


e-|--------------------------------------|----------------------------------------------|-
B-|----9--7----9----7------------7--9----|----9--7----9----7----------------------------|-
G-|----9--7----9----7------------7--9----|----9--7----9----7----------------------------|-
D-|----------------------9----9----------|------------------------9--8--7--5------------|-
A-|--------------------------------------|--------------------------------------5--7----|-
E-|--------------------------------------|----------------------------------------------|-



Figure. 2


e-|--------------------------------------|----------------------------------------------|-
B-|--------------------------------------|----------------------------------------------|-
G-|--------------------------------------|----------------------------------------------|-
D-|--------------------------------------|------------------------9--8--7--5------------|-
A-|----7--5----7----5------------5--7----|------7--5----7----5------------------5--7----|-
E-|----------------------7----7----------|----------------------------------------------|-


e-|--------------------------------------|----------------------------------------------|-
B-|--------------------------------------|----------------------------------------------|-
G-|--------------------------------------|----------------------------------------------|-
D-|--------------------------------------|------------------------9--8--7--5------------|-
A-|----7--5----7----5------------5--7----|------7--5----7----5------------------5--7----|-
E-|----------------------7----7----------|----------------------------------------------|-


Get this song at amazon.com      Ebay     Ringtones Ringtones  


Learn to play: Songwriting, Piano, Harmonica, Guitar
More Red Hot Chili Peppers lyrics available at Muzikum

Related Red Hot Chili Peppers Tabs

Lovercall tabs
Fat Dance tabs
Easy Higher Ground tabs
Ill Be Your Domino tabs
Under The Bridge Totally Correct tabs
Greeting Song tabs
Tear (3) tabs
Make You Feel Better tabs
Suck My Kiss tabs
City Of Angels tabs
FelaĊ½s Cock tabs
The Coffee Shop tabs
Desecration Smile Bass tabs
Otherside Live Intro tabs
Bunker Hill tabs
Slow Cheetah Bass tabs
Torture Me tabs
Brendan\'s Death Song tabs
Hard To Concentrate tabs
Venice Queen (2) tabs


Guitar Tabs









All tabs are property and copyright of their owners. All tabs provided for educational purposes only. Privacy Policy, DMCA