Red Hot Chili Peppers

The Brothers Cup From Sheet Music Bass Tabs



More from Red Hot Chili Peppers

Red Hot Chili Peppers Tabs
Red Hot Chili Peppers Chords
Red Hot Chili Peppers Bass
Red Hot Chili Peppers Lyrics



this is completely right the others are a bit off.

dropped d tuning


Verse

G----------------|----------------|----3-3-0-------|
D--0-------------|--0---0---------|----------------|
A------3-2-3-2-0-|----------3-2---|----------------|
D----------------|----------------|----------------|
(6x)
G----------------|------0-----1-0-|----------------|
D--0-------------|--3~------3-----|---3-0----------|
A------3-2-3-2-0-|----------------|----------------|
D----------------|----------------|----------------|



Chorus

G----------------|----------------|----------------|
D--0-------------|--0-------------|----------------|
A------3--1------|-----3--1--3-3--|----------------|
D-----------5-3-5|----------------|--5--3----------|
(1x)
G----------------|----------------|
D--0-------------|--0-------------|
A------3--1------|-----3--1--3-3-1|
D-----------5-3-5|----------------|



Verse

G----------------|----------------|----3-3-0-------|
D--0-------------|--0---0---------|----------------|
A------3-2-3-2-0-|----------3-2---|----------------|
D----------------|----------------|----------------|
(2x then bass out then 1x)
G----------------|------0-----1-0-|----------------|
D--0-------------|--3~------3-----|---3-0----------|
A------3-2-3-2-0-|----------------|----------------|
D----------------|----------------|----------------|


Chorus

G----------------|----------------|----------------|
D--0-------------|--0-------------|----------------|
A------3--1------|-----3--1--3-3--|----------------|
D-----------5-3-5|----------------|--5--3----------|
(1x)
G----------------|----------------|
D--0-------------|--0-------------|
A------3--1------|-----3--1--3-3-1|
D-----------5-3-5|----------------|


Bridge

G----------------|----------------|----------------|----------------|
D----------------|----------------|----------------|----------------|
A----------------|----------------|----------------|----------------|
D--0-0000-00-----|--0-0000-00-----|--0-0000-00-----|--0-0000-00-----|

G----------------|----------------|----------------|----------------|
D----------------|----------------|----------------|----------------|
A----------------|----------------|----------------|----------------|
D--0-0000-00-----|--0-0000-00-----|--0-0000-00-----|--0-0000-00-----|

G----------------|----------------|----------------|----------------|
D----------------|----------------|----------------|----------------|
A-----------x5-x7|-----------x5-x7|-----------x5-x7|-----------x5-x7|
D--0-0000-0------|--0-0000-00-----|--0-0000-00-----|--0-0000-00-----|

G----------------|----------------|----------------|----------------|
D----------------|----------------|----------------|----------------|
A-----------x5-x7|-----------x5-x7|-----------x5-x7|-----------x5-x7|
D--0-0000-0------|--0-0000-00-----|--0-0000-00-----|--0-0000-00-----|

G----------------|----------------|----------------|
D--7-7-7-7-------|--7-7-7-7-------|----------------|
A----------------|----------------|----------------|
D----------------|----------------|---3/--17------|



Verse

G----------------|----------------|----3-3-0-------|
D--0-------------|--0---0---------|----------------|
A------3-2-3-2-0-|----------3-2---|----------------|
D----------------|----------------|----------------|
(2x then bass out then 1x)
G----------------|------0-----1-0-|----------------|
D--0-------------|--3~------3-----|---3-0----------|
A------3-2-3-2-0-|----------------|----------------|
D----------------|----------------|----------------|


Chorus

G----------------|----------------|----------------|
D--0-------------|--0-------------|----------------|
A------3--1------|-----3--1--3-3--|----------------|
D-----------5-3-5|----------------|--5--3----------|
(2x)
G----------------|----------------|
D--0-------------|--0-------------|
A------3--1------|-----3--1--3-3-1|
D-----------5-3-5|----------------|


Last Note (bend)

G----------------|
D----------------|
A-----7~~~~------|
D----------------|



have fun listen to cd to learn rhythm



Get this song at amazon.com      Ebay     Ringtones Ringtones  


Learn to play: Songwriting, Piano, Harmonica, Guitar
More Red Hot Chili Peppers lyrics available at Muzikum

Related Red Hot Chili Peppers Bass Tabs

Behind The Sun bass
Religion bass
Goodbye Hooray bass
Soul To Sqeeze (improved) bass
Nevermind bass
Higher Ground (complete) bass
Meister bass
C'mon Girl (perfect) bass
Storm In A Teacup (perfect) bass
Mellowship In Slinky B Major bass
Easily With Triads bass
Arpeggiating bass
Dani Calofnia bass
Battleship bass
21st Century bass
Havana Affair bass
Woodstock Intro Bass Solo bass
I Like Dirt bass
Blood Sugar Sex Magik bass
Super Ultra Rare Flea Bass Solo bass


Guitar Tabs









All tabs are property and copyright of their owners. All tabs provided for educational purposes only. Privacy Policy, DMCA