Red Hot Chili Peppers

The Abbey Road Tabs



More from Red Hot Chili Peppers

Red Hot Chili Peppers Tabs
Red Hot Chili Peppers Chords
Red Hot Chili Peppers Bass
Red Hot Chili Peppers Lyrics

Tabbed by Ignacio "Coco" Vespoli
cocofuhgawz@hotmail.com
Band: Red Hot Chili Peppers
Album: The Abbey road E.P.
TRACKS:
1-Fire
2-Backwoods
3-Catholic School Grils Rule
4-Hollywood (Africa)
5-True Men Don't Kill Coyotes
________________________________________________________
1. FIRE
Written by Jimi Hendrix
Tuning: Normal
INTRO
e|----------------------------------|
B|----------------------------------|
G|----------------------------------|
D|-6-5--3h5---------6-5--3h5------|
A|-----------5-5---------------5-5--|
E|----------------------------------|
VERSE
e|-------------------------------------|
B|-------------------------------------|
G|-------------------------------------|
D|-------------------------------------|
A|---/3--5-5---------------------------|
E|-5-----------------------------------|
CHORUS
e|------------------------------------------------------|
B|------------------------------------------------------|
G|-7-7-7--5-5-5-----------------------------------------|
D|-7-7-7--5-5-5-----------------------------------------|
A|-5-5-5--3-3-3--2-2--3-3--4-4-4------------------------|
E|------------------------------------------------------|
BRIDGE
e|---------------------|
B|---------------------|
G|-7----5---------5----|
D|-7----5----5----5----|
A|-5----3----5----3----|
E|-----------7---------|
SOLO
e|-12-12-12p10-------12-12-12p10--14b--12-12-12p10-------|
B|--------------12b--------------------------------12b---|
G|-------------------------------------------------------|
D|-------------------------------------------------------|
A|-------------------------------------------------------|
E|-------------------------------------------------------|
e|--10/12-12-12p10----------|
B|-----------------12-------|
G|---------------------14b--|
D|--------------------------|
A|--------------------------|
E|--------------------------|
______________________________________________________________
2. BACKWOODS
Written by the Red Hot Chili Peppers
INTRO
e|-------------------------|
B|-------------------------|
G|-------------------------|
D|--4-x-4-4-4-4-xx-4-4-----|
A|--4-x-4-4-4-4-xx-4-4-----|
E|--2-x-2-2-2-2-xx-2-2-----|
VERSE
e|--------------------------|
B|--------------------------|
G|--------------------------|
D|--4-x-4-4-4-4-xx-4-4------|
A|--4-x-4-4-4-4-xx-4-4------|
E|--2-x-2-2-2-2-xx-2-2------|
CHORUS
e|----------------------------------------|
B|----------------10-10-9-xx-10-12-12-----|
G|---------2-4-----9--9-9-xx--9-11-11-----|
D|-4-4-2-2-2-4----------------------------|
A|-4-4-2-2-0-2----------------------------|
E|-2-2-0-0--------------------------------|
BRIDGE
e|-----------------------------------------------------------------|
B|-----------------------------------------------------------------|
G|-----------------------------------------------------------------|
D|-----------------------------------------------------------------|2 times
A|-0h2-0h2-0h2-0h2-0h2-0h2-0h2-0h2-0h2-0h2-0h2-0h2-0h2-0h2-0h2-0h2-|
E|-----------------------------------------------------------------|
--------|
--/19--|
--------|
--------|
--------|
--------|
SOLO
e|----------------------------------------------------
B|--7--7----8b--8b--8b--10b---------------5-----------
G|--9b-9b----------------------5-5--------5-5---------
D|----------------------------------7p5-7------7p5-7--
A|----------------------------------------------------
E|----------------------------------------------------
---------------------------------------------------------------------------|
--------------------5-------------------------------------5b~-8brr-8brr----|
---------5---5-7-7b___7-5-7p5--------------------5--------5b~-----------9~-|
-5---5h7---7-------------------7---------5---5-7b--7-5h7-------------------|
---7-------------------------------7p5h7---7-------------------------------|
---------------------------------------------------------------------------|
OUTRO
e|--------------|
B|--------------|
G|--------------|
D|-4-4-xx-4-4---|
A|-4-4-xx-4-4---|
E|-2-2-xx-2-2---|
_______________________________________________________________________________
3. CATHOLIC SCHOOL GIRLS RULE
Written by the Red Hot Chili Peppers
INTRO/VERSE
e|---------------------------------------------------------------|
B|----------x-x-x----------x-x-x--------------------------x-x-x--|
G|----------x-x-x----------x-x-x--------------------------x-x-x--|
D|----------x-x-x----------x-x-x--------------------------x-x-x--|
A|----------x-x-x----------x-x-x----------3---------------x-x-x--|
E|--3--5-5---------3--5-5---------3--5-5-----5-5--3--5-5---------|
RIFF 1
e|----------------|
B|----------------|
G|-----2---5-4----|
D|-----2---5-4----|
A|-----0---3-2----|
E|----------------|
RIFF 3
e|---------------------------|---------------------------|
B|---------------------------|---------------------------|
G|---------------------------|---------------------------|
D|--3--4--5--5-5--x--5--5-5--|--5--6--7--7-7--x--7--7-7--|
A|--3--4--5--5-5--x--5--5-5--|--5--6--7--7-7--x--7--7-7--|
E|--1--2--3--3-3--x--3--3-3--|--3--4--5--5-5--x--5--5-5--|
RIFF 4
e|----------------------------|-----------------------------------|
B|----------------------------|-----------------------------------|
G|----------------------------|-----------------------------------|
D|--3--0-0-0-0----5--0-0-0-0--|--3--0--0-0--5--0--0-0--7--0--0-0--|
A|----------------------------|-----------------------------------|
E|----------------------------|-----------------------------------|
BRIDGE
e|-----------------|
B|-----------------|
G|--3-----5-----5--|
D|--3-----5-----5--|
A|-----------------|
E|-----------------|
RIFF 5
e|--------------------------------------|
B|--------------------------------------|
G|--9--9----9--9----9-9--9-9--9-9--9-9--|
D|--9--9----9--9----9-9--9-9--9-9--9-9--|
A|--7--7----7--7----7-7--7-7--7-7--7-7--|
E|--------------------------------------|
RIFF 6 / END
e|-----------|
B|-----------|
G|-----------|
D|-----------|
A|-----------|
E|--3--5-5---|
____________________________________________________________
4. HOLLYWOOD (AFRICA)
Written by The Meters
INTRO
e|--6----6--6-----------------------------------|
B|--5----5--5--------------------------3----5---|
G|--4----4--4--------2h3--5-3----------3----5---|
D|--5----5--5-----------------5--3-----3----5---|
A|----------------------------------5-----------|
E|----------------------------------------------|
VERSE
e|-------------------------------------|
B|-------------------------------------|
G|----5--3--x-3------------------------|
D|---------------x-3--5--x-5-5--5-5----|
A|-------------------------------------|
E|-------------------------------------|
VERSE 2
e|-------------------------------------|--------------------------------|
B|-------------------------------------|--------------------------------|
G|----5--3--x-3------------------------|--5--3--x-3--x-5b-5b-5b-5b--5p3-|
D|---------------x-3--5--x-5-5--5-5----|--------------------------------|
A|-------------------------------------|--------------------------------|
E|-------------------------------------|--------------------------------|
CHORUS
e|---------------------------------|------------------------|
B|---------------------------------|--3---------------------|
G|--5--3--x-3----------------------|--3--------2--------4---|
D|-------------x-3--5--x-5-5--5-5--|--3--------3--------5---|
A|---------------------------------|--1--------3--------5---|
E|---------------------------------|-----------1--------3---|
SOLO
e|----------------------------------------------------
B|----3--6----6p5/3--5---------------------5b--5b--3--
G|-5b--------------------5~~~~---5-3-5--5--5b--5b--3--
D|----------------------------------------------------
A|----------------------------------------------------
E|----------------------------------------------------
-----------------------------------------------------------------------
--3--------------3h5p3-----3--5b--5--3---5--5---3--5b--5--3--5--5-3~~--
-----5-5----3h5---------5----------------------------------------------
-----------------------------------------------------------------------
-----------------------------------------------------------------------
-----------------------------------------------------------------------
--6------6--3---6p5/3--5---8------8-8~~-----8-8~~--8----|
--------------------------------------------------------|
--------------------------------------------------------|
--------------------------------------------------------|
--------------------------------------------------------|
--------------------------------------------------------|
END
e|------------------|--------------------|
B|-----3-----5b-----|----3---------------|
G|-----3-----5------|----3-----2-----4---|
D|--5-----5---------|----3-----3-----5---|
A|------------------|----1-----3-----5---|
E|------------------|----------1-----3---|
_________________________________________________________________________
5. TRUE MEN DON'T KILL COYOTES
Written by Flea/Kiedis/Sherman/Martinez
INTRO
e|------------------------------|
B|------------------------------|
G|------------------------------|
D|------------------------------|
A|--------7--5------------------|
E|--0--7---------0--3--5--5--0--|
VERSE
Guitar 1
e|-------------------------------|
B|-------------------------------|
G|--9---9--9-9-------------------|
D|--9---9--9-9-------5---9-------|
A|--7---7--7-7-------5---9-------|
E|----------------0--3---7-------|
Guitar 2
e|------------------------------|
B|------------------------------|
G|-----------7------------------|
D|-----9--------9-----9---------|
A|--9-----9--------9------------|
E|-----------------------7------|
BRIDGE
e|------------------------------|
B|------------------------------|
G|--------------------------7---|
D|--------9--------9------------|
A|-----9--------9--------9------|
E|--7--------7--------7---------|
CHORUS
e|-------------------------------|
B|-------------------------------|
G|--9---9--9-9-------------------|
D|--9---9--9-9-------5---9-------|
A|--7---7--7-7-------5---9-------|
E|----------------0--3---7-------|
SOLO 1
e|-----------------------------------|
B|--15---12--------------------------|
G|------------14---12---14-----------|
D|---------------------------12------|
A|-----------------------------------|
E|-----------------------------------|
SOLO 2
e|---------------------------------------------14--12--10--12--------|
B|-------------------------------------10--12------------------12----|
G|---------x-x------------------9--11--------------------------------|
D|--15h16--x-x--12--9---9--12----------------------------------------|
A|---------x-x-------------------------------------------------------|
E|-------------------------------------------------------------------|
==========================================================================
Comments? Send me an e-mail!!!



Get this song at amazon.com      Ebay     Ringtones Ringtones  


Learn to play: Songwriting, Piano, Harmonica, Guitar
More Red Hot Chili Peppers lyrics available at Muzikum

Related Red Hot Chili Peppers Tabs

Give It Away Version 2 tabs
The Coffee Shop tabs
Warm Tape tabs
Cant Stop tabs
Fat Dance Bass tabs
Search And Destroy tabs
Did I Let You Know tabs
Blood Sugar Sex Magik tabs
Bob Bass tabs
Under The Bridge (acoustic) tabs
Wet Sand tabs
Dani California Intro tabs
By The Way (live) tabs
Baby Appeal tabs
Californication-)album(-perfect Version tabs
Dosed Bass tabs
Monarchy Of Roses tabs
Blue Monday tabs
Dani California Solo tabs
Venice Queen (5) tabs


Guitar Tabs









All tabs are property and copyright of their owners. All tabs provided for educational purposes only. Privacy Policy, DMCA