Red Hot Chili Peppers

Tell Me Baby (live) Bass Tabs



More from Red Hot Chili Peppers

Red Hot Chili Peppers Tabs
Red Hot Chili Peppers Chords
Red Hot Chili Peppers Bass
Red Hot Chili Peppers Lyrics




Standard Tuning: EADG
Album: Stadium Arcadium
PLEASE READ!!--------
|
\-/
V
I found this song on limewire and I tried to tab it out before anyone
has ever heard it. THIS IS A BRAND NEW VERSION OF THIS SONG! (TABBED
BEFORE ALBUM CAME OUT!) I think I did a pretty good job for barely
being about to here the song while playing live. PLEASE VOTE
YES!! Thank You, try downloading the song or listen to it and
try to play along.. it is pretty easy but fun!
-[matt]

[INTRO]- DO NOT PLAY

[VERSE]-
G:---------------]
D:---------------]
A:---------------] X12
E:-3-5-0-3--5--0-]

[BRIDGE]
G:-10-10-10-10-10-10-10-10-10-10-10-10-10-10-10-10-10-10-10-10-]
D:-------------------------------------------------------------]
A:-------------------------------------------------------------] X1
E:-------------------------------------------------------------]

[VERSE]-
G:---------------]
D:---------------]
A:---------------] X4
E:-3-5-0-3--5--0-]

[CHORUS]
G:------------------------------]
D:------------------------------]
A:---------------3-3-3-35-5-5-5-] X4
E:-3-3-3-35-5-5-5---------------]

[VERSE]-
G:---------------]
D:---------------]
A:---------------] X12
E:-3-5-0-3--5--0-]

[BRIDGE]
G:-10-10-10-10-10-10-10-10-10-10-10-10-10-10-10-10-10-10-10-10-]
D:-------------------------------------------------------------]
A:-------------------------------------------------------------] X1
E:-------------------------------------------------------------]

[VERSE]-
G:---------------]
D:---------------]
A:---------------] X4
E:-3-5-0-3--5--0-]

[CHORUS]
G:------------------------------]
D:------------------------------]
A:---------------3-3-3-35-5-5-5-] X4
E:-3-3-3-35-5-5-5---------------]

[GUITAR-SOLO]
G:-------------------------------------]
D:-------------------------------------]
A:-------------------------------------]
E:-0-0-0-0-0-0-0-0-0-0-0-0-0-0-0-0-0-0-]

[CHORUS]
G:---------------------------------]
D:---------------------------------]
A:---------------3-3-3-35-5-5-5----] X4
E:-3-3-3-35-5-5-5----------------0-]



Get this song at amazon.com      Ebay     Ringtones Ringtones  


Learn to play: Songwriting, Piano, Harmonica, Guitar
More Red Hot Chili Peppers lyrics available at Muzikum

Related Red Hot Chili Peppers Bass Tabs

Californication(correct) bass
Battleship bass
Baby Appea bass
Under The Bridge (not Live) bass
I Like Dirt bass
Snow Hey Oh bass
Parallel Universe (%100 Perfect) bass
Flea Bass Solo Fix bass
Sikamikanico bass
Hey bass
Grand Pappy Du Plenty bass
Quixotic Elixer bass
Hyde Park: Bass Solo #1 bass
Midnight bass
Around The World2 bass
Suck My Kiss (correct) bass
All Around The World bass
Other Side (%500 Perfect) bass
Transcending bass
Dani California (turned Into Tabs From Notes) bass


Guitar Tabs









All tabs are property and copyright of their owners. All tabs provided for educational purposes only. Privacy Policy, DMCA