Red Hot Chili Peppers

Tell Me Baby Perfect Tabs



More from Red Hot Chili Peppers

Red Hot Chili Peppers Tabs
Red Hot Chili Peppers Chords
Red Hot Chili Peppers Bass
Red Hot Chili Peppers Lyrics




Tell me Baby by Red Hot Chili Peppers
Standard tuning

Intro finger picked

E------------------------------------------------------------------------
A-----------3--------5------------------------3------5-------------------
D---3-------------------------3--------3---------------------------------
G---2------0---------0-------5-2- ----2-----0------0------7--------------
B------1--------1-------0----------------1------1-----0----7-------------
e------------------------------------------------------------------------
Repeat 2 times but on second ending strum out the 500 chord and
donít plat the 77 chord.

Verse

E-----------------------------------------------------------------------------------
A-----------------------------------------------------------------------------------
D-----------------------------------------------------------------------------------
G-------9---------9-------9-------9-9-------9-------9-------9-----------------------
B-8-10---8-10-8---8-10---8-10-----8-10---8-10---8-10--------------8-8h10------------
e-------------------------------------------------------------------8p7-5 ----------
Repeat 3 times

Bridge

E-------------------------------------------------------------------------
A-------------------------------------------------------------------------
D-------------------------------------------------------------------------
G-12-12---12-12-12---12-12---12-12-12 repeat x4-15-15-15-15---------------
B-12-12---12-12-12---12-12---12-12-12-------------15-15-15-15-------------
e-12-12---12-12-12---12-12---12-12-12--------------15-15-15-15------------

Chorus

E-------------------------------------------------------------------------------------
A-------------------------------------------------------------------------------------
D-------------------------------------------------------------------------------------
G-------------------------------------------------------------------------------------
B-------------------------------------10----10----------------------------------------
e-8---8---7-8-5----8---8---7---13----13-----8---8---7-8-5----8---8---13---13----------

Repeat 2 times

Song Layout:
Intro
Verse
Bridge
Chorus
Verse
Bridge
Verse
Chorus
Verse behind the solo
Chorus



Get this song at amazon.com      Ebay     Ringtones Ringtones  


Learn to play: Songwriting, Piano, Harmonica, Guitar
More Red Hot Chili Peppers lyrics available at Muzikum

Related Red Hot Chili Peppers Tabs

Party On Your Pussy tabs
Warm Tape Bass tabs
Can't Stop tabs
Minor Thing tabs
On Mercury Bass tabs
Tiny Dancer tabs
City Of Angels tabs
Brendan\'s Death Song tabs
Funny Face Bass tabs
Desecration Smile (2) tabs
Turn It Again tabs
Lets Make Evil tabs
Nevermind tabs
Venice Queen (5) tabs
Cabron tabs
Coffee Shop tabs
Fight Like A Brave tabs
Hump De Bump Bass tabs
Right On Time Bass tabs
Tear Solo tabs


Guitar Tabs









All tabs are property and copyright of their owners. All tabs provided for educational purposes only. Privacy Policy, DMCA