Red Hot Chili Peppers

Tear Tabs



More from Red Hot Chili Peppers

Red Hot Chili Peppers Tabs
Red Hot Chili Peppers Chords
Red Hot Chili Peppers Bass
Red Hot Chili Peppers Lyrics



Song: Tear (solo)

Artist: Red Hot Chili Peppers

Album: By The Way



tabbed by Francy [ITA]

My name is Francesco Giampiccolo, if you have any question ask me... My e-mail address

webmaster at tabs-database.com.com



This is the correct solos, I'm sure of this





2:16



E|------------------------------------------------------------------------------- |

B|------------------------------------------------------------------------------- |

G|----9-10-12-10-9---------------------------9------------9------------9--------- |

D|--10------------10---9-10-12-10-9--9---7-10-----9p8p7-10-----9p8p7-10---------- |

A|-------------------10------------10-------------------------------------------- |

E|------------------------------------------------------------------------------- |





E|----------------------------------------------------------------------------- |

B|----------------------------------------------------------------------------- |

G|----------9------------9--------------9-10-12-10-9---------9-10-9------------ |

D|--9p8p7-10-----9p8p7-10----9p8p7----10------------10---9-10-------10--------9 |

A|-----------------------------------------------------10-------------10-7-10-- |

E|----------------------------------------------------------------------------- |





E|----------------------------------------------------------------------------- |

B|---------------------------------------------------------5------------------- |

G|----------9------------9------------9------------9----7--5------------------- |

D|--9p8p7-10-----9p8p7-10-----9p8p7-10-----9p8p7-10-----9---------------------- |

A|----------------------------------------------------------------------------- |

E|----------------------------------------------------------------------------- |





3:46 trumpet part arranged for guitar



e|------------------------------------- |

B|--10-12-12/15-12-10---15b--13--10---- | REPEAT

G|------------------------------------- |

D|------------------------------------- |

A|------------------------------------- |

E|------------------------------------- |



That's all... I hope it's useful for youAdded by tabs-database.com and our distinguished partners
Get this song at amazon.com      Ebay     Ringtones Ringtones  


Learn to play: Songwriting, Piano, Harmonica, Guitar
Also available at Muzikum: Red Hot Chili Peppers - Tear lyrics

Related Red Hot Chili Peppers Tabs

Mini Epic tabs
Animal Bar tabs
Stone Cold Bush tabs
Time tabs
On Mercury tabs
Sir Psycho Sexy tabs
Organic Anti-beat Box Band tabs
Punk Rock Classic tabs
Zephyr Song tabs
Venice Queen (3) tabs
Leverage Of Space tabs
Bob Bass tabs
My Friends tabs
American Ghostdance tabs
Yertle The Turtle Bass tabs
Hump De Bump tabs
Midnight (3) tabs
If tabs
Skinny Sweaty Man Bass tabs
Venice Queen (2) tabs


Guitar Tabs









All tabs are property and copyright of their owners. All tabs provided for educational purposes only. Privacy Policy, DMCA