Red Hot Chili Peppers

Taste The Pain (correct Chorus And Intro) Bass Tabs



More from Red Hot Chili Peppers

Red Hot Chili Peppers Tabs
Red Hot Chili Peppers Chords
Red Hot Chili Peppers Bass
Red Hot Chili Peppers Lyrics




Intro (slapped)

----------------------------------
----7-7---5-5-5-5---5-5---4-4-----
-------3-----3-2------------------
-5---------------3-----2-----1-0--
T P PT P PTPTPT P PT P PT T

----------------------------------
----7-7---5-5-5-5---5-5---4-4-----
-------3-----3-2------------------
-5---------------3-----2-----1-0--
T P PT P PTPTPT P PT P PT T


Verse (note are syncapated)

---------------------------------------------------
--2-2-5-5------5-0-2-2-5-5-------0-2-2-5-5--------
----------3-3-3-3----------3-3-3-----------3-3-3-3
---------------------------------------------------
1+2+3+4+1+2+3+4y+1+2+3+4+1+2+3+4+1+2+3+4+1+2+3+4+

Chorus (slapped)

-----9-9---------------------------
----------------------7-7----------
--7-7---7------------------5-5-6-6-
----------8-8-7-7--5-5---5---------
T TP PT T T T T T TP PT T T T T
Bridge

------------------------
------------------------
-0-0--------------------
------3-3332-2--1-111---



Get this song at amazon.com      Ebay     Ringtones Ringtones  


Learn to play: Songwriting, Piano, Harmonica, Guitar
More Red Hot Chili Peppers lyrics available at Muzikum

Related Red Hot Chili Peppers Bass Tabs

Funky Monks (4 String Adaption) bass
Dany California bass
Buckle Down bass
Blackeyed Blonde bass
Why Dont You Love Me bass
The Zephyr Song bass
Don t forget me bass
Hey bass
Flea:funk Song bass
Mellowship Slinky In Bminor bass
Tear (complete) bass
Turn It Again bass
Giveitaway bass
Dr Funkenstein bass
Charlie bass
She's Only 18 bass
Subterranean Homesick Blues bass
Felas Cock bass
Woodstock Intro Bass Solo bass
By The Way (tabbed From Notes) bass


Guitar Tabs









All tabs are property and copyright of their owners. All tabs provided for educational purposes only. Privacy Policy, DMCA