Red Hot Chili Peppers

Suck My Kiss (in Detail) Bass Tabs



More from Red Hot Chili Peppers

Red Hot Chili Peppers Tabs
Red Hot Chili Peppers Chords
Red Hot Chili Peppers Bass
Red Hot Chili Peppers Lyrics




Suck My Kiss
Red Hot Chili Peppers
Blood Sugar Sex Magik


Intro:

G|-------------------------------------------------------------7/99--|
D|-------------------------------------------------------5/777-------| x2
A|------1--------------1---------------1-----3/555-5/888-------------|
E|--1-3----1-3--x--1-3----1-3--x--1-3----1-3-------------------------|
^
make this really fast

Verse:

G|-----------------------------------------|
D|-----------------------------------------|
A|---------------------------------x-1h3---|
E|--1-3-x-3--1-3-x-3--1-3-x-3--1-3-------1-|


Oh baby think u can...
G|---------------------------------------|
D|------3-------3---------3--------------|
A|---------------------------------9~----|
E|--1-------1-------1-1-------1-2/-------|


Chorus:

G|-------------------- -----------------------
D|-------5--5--------- x2 -------5--5------------ 3rd time **(see bottom of tab)**
A|---------5--5--0-0-- ---------5--5----------
E|--0-0--------------- --0-0----------0--0-0--


**At every 3rd time in the chorus riff you play sequential open
E's as shown above. However, every third time will have one less
open note (the first "3rd time" has three, the second has 2, the
last has one). If this confuses you just listen to the song and
you will notice it.**

Thx for looking at this tab, please rate or leave comments and enjoy!



Get this song at amazon.com      Ebay     Ringtones Ringtones  


Learn to play: Songwriting, Piano, Harmonica, Guitar
More Red Hot Chili Peppers lyrics available at Muzikum

Related Red Hot Chili Peppers Bass Tabs

Falling Into Grace bass
Baby Appea bass
Californication (the Ultimate Tab) bass
Pea~flea bass
Hey Bass Tab bass
Rolling Sly Stone bass
I Could Have Lied bass
Strom In A Teacup bass
I Could Have Lied (live) bass
Scar Tissue bass
Parallel Universe (%100 Perfect) bass
Crosstown Traffic bass
Sexamaniac(cant Stop) bass
Can't Stop bass
Hollywood bass
No Chump Love Sucker bass
Death Of A Martian bass
Hump De Bump bass
Flea Bass Solo:arpeggiating bass
Can't Stop (correct) bass


Guitar Tabs









All tabs are property and copyright of their owners. All tabs provided for educational purposes only. Privacy Policy, DMCA