Red Hot Chili Peppers

Suck My Kiss! Awesome Bass Tabs



More from Red Hot Chili Peppers

Red Hot Chili Peppers Tabs
Red Hot Chili Peppers Chords
Red Hot Chili Peppers Bass
Red Hot Chili Peppers Lyrics




INTRO

G|---------------------------------|---------------------------------|
D|---------------------------------|---------------------------------|
A|---------R---1---------------R---|---------R---1---------------R---|
E|-1---3-------------1-----3-------|-1---3-------------1-----3-------|
1 + + + 2 + + + 3 + + + 4 + + + 1 + + + 2 + + + 3 + + + 4 + + +

G|---------------------------------|-------------------------7h9-9---|
D|---------------------------------|---------3h5-5-5-5/7-7-7---------|
A|---------R---1---------------R---|-3h5-5-5-------------------------|
E|-1---3-------------1-----3-------|---------------------------------| (2 TIMES)
1 + + + 2 + + + 3 + + + 4 + + + 1 + + + 2 + + + 3 + + + 4 + + +

PREVERSE

triplet
G|---------------------------------|------------------------------------|
D|---------------------------------|------------------------------------|
A|---------R---------------R---R---|---------R-----------R--[1h3h1]-----|
E|-1---3-----3---1-----3-----3-----|-1---3-----3---1---3---3-------1----| (2 TIMES)
1 + + + 2 + + + 3 + + + 4 + + + 1 + + + 2 + + + 3 + + + 4 + + +

VERSE
triplet
G|---------------------------------|------------------------------------|
D|---------------------------------|------------------------------------|
A|---------R---------------R---R---|---------R-----------R--[1h3h1]-----|
E|-1---3-----3---1-----3-----3-----|-1---3-----3---1---3---3-------1----| (2 TIMES)
1 + + + 2 + + + 3 + + + 4 + + + 1 + + + 2 + + + 3 + + + 4 + + +

G|---------------------------------|---------------------------------|
D|---------3-----------------------|-3-------3-------4-------4-------|
A|-----------------------------3---|-------------4-------------------|
E|-1-------------------------------|---------------------------------|
1 + + + 2 + + + 3 + + + 4 + + + 1 + + + 2 + + + 3 + + + 4 + + +

triplet
G|---------------------------------|------------------------------------|
D|---------------------------------|------------------------------------|
A|---------R---------------R---R---|---------R-----------R--[1h3h1]-----|
E|-1---3-----3---1-----3-----3-----|-1---3-----3---1---3---3-------1----| (2 TIMES)
1 + + + 2 + + + 3 + + + 4 + + + 1 + + + 2 + + + 3 + + + 4 + + +


G|---------------------------------|---------------------------------|
D|---------3-----------------------|-3-------3-------4-------4-------|
A|-----------------------------3---|-------------4-------------------|
E|-1-------------------------------|---------------------------------|
1 + + + 2 + + + 3 + + + 4 + + + 1 + + + 2 + + + 3 + + + 4 + + +

G|---------------------------------|---------------------------------|
D|---------------------------------|---------------------------------|
A|---------R---------------R---R---|---------R---1-------------------|
E|-1---3-----3---1-----3-----3-----|-1---3---------------------------|
1 + + + 2 + + + 3 + + + 4 + + + 1 + + + 2 + + + 3 + + + 4 + + +

CHORUS

G|---------------------------------|---------------------------------|
D|-----------------5-----5---------|---------------------------------|
A|-------------------5-------5-----|-0---0---------------------------|
E|-0---0-------------------------0-|---------------------------------| (2 TIMES)
1 + + + 2 + + + 3 + + + 4 + + + 1 + + + 2 + + + 3 + + + 4 + + +

G|---------------------------------|---------------------------------|
D|-----------------5-----5---------|---------------------------------|
A|-------------------5-------5-----|-0---0-------------------R-------|
E|-0---0-------------------------0-|-------------------0---0---0---x-|
1 + + + 2 + + + 3 + + + 4 + + + 1 + + + 2 + + + 3 + + + 4 + + +

G|---------------------------------|---------------------------------|
D|-----------------5-----5---------|---------------------------------| *(Play 1 2nd
A|-------------------5-------5-----|-0---0--(1)*---------------------| chorus only)
E|-0---0-------------------------0-|---------------------------------|
1 + + + 2 + + + 3 + + + 4 + + + 1 + + + 2 + + + 3 + + + 4 + + +

REALL FUNKY



Get this song at amazon.com      Ebay     Ringtones Ringtones  


Learn to play: Songwriting, Piano, Harmonica, Guitar
More Red Hot Chili Peppers lyrics available at Muzikum

Related Red Hot Chili Peppers Bass Tabs

Chili Peppers Blow bass
Goodbye Hooray bass
Bass Solo bass
Hump De Bump (100% Correct) bass
Spell Correctly bass
The Is The Place bass
Sex Rap bass
C'mon Girl bass
Californication (live At Slane) bass
I Like Dirt bass
Rolling Sly Stone bass
Hard To Concentrate bass
Hump De Bump bass
Fight Like A Brave bass
Under The Bridge Intro On Bass bass
Johnny kick a hole in the sky bass
Havana Affair bass
Cabron bass
Desecration Smile bass
Tell Me Baby (live) bass


Guitar Tabs









All tabs are property and copyright of their owners. All tabs provided for educational purposes only. Privacy Policy, DMCA