Red Hot Chili Peppers

Subway To Venus (complete) Bass Tabs



More from Red Hot Chili Peppers

Red Hot Chili Peppers Tabs
Red Hot Chili Peppers Chords
Red Hot Chili Peppers Bass
Red Hot Chili Peppers Lyrics




G :--------------------------------|--------------------------------|
D :--------------------------------|--------------------------------|
A :--------------------------------|--------------------------------|
E :--------------------------------|--------------------------------|


G :--------------------------------|
D :--------------------------------|
A :--------------------------------|
E :--------------------------------|


G :15-14-12----14-12-----------------------------|
D :---------14-------14-12-11----12-11-----------|
A :---------------------------12-------12-10---7-|
E :----------------------------------------------|


G :--------9-----------------------|--------9-------------------7-----|
D :----------6-----7-----8----9----|----------6-----7-(0)-7-8-9---9---|
A :7-------------------------------|7---------------------------------|
E :--------------------------------|----------------------------------|


G :--------9-----------------------|--------------------------------|
D :----------6-----7-----8----9----|--------------------------------|
A :7-------------------------------|----------------------5---------|
E :--------------------------------|----------4--5--6--7-----7--6--5|


G :--------9-----------------------|--------9-------------------7-----|
D :----------6-----7-----8----9----|----------6-----7-(0)-7-8-9---9---|
A :7-------------------------------|7---------------------------------|
E :*-------------------------------|----------------------------------|


G :--------9-----------------------|--------9-------------------7-----|
D :----------6-----7-----8----9----|----------6-----7-(0)-7-8-9---9---|
A :7-------------------------------|7---------------------------------|
E :--------------------------------|----------------------------------|


G :--------9-----------------------|--------9-------------------7-----|
D :----------6-----7-----8----9----|----------6-----7-(0)-7-8-9---9---|
A :7-------------------------------|7---------------------------------|
E :--------------------------------|----------------------------------|


G :--------9-----------------------|--------9-------------------7-----|
D :----------6-----7-----8----9----|----------6-----7-(0)-7-8-9---9---|
A :7-------------------------------|7---------------------------------|
E :--------------------------------|----------------------------------|


G :--------------------------------|---------------------------------|
D :--------------------------------|---------------------------------|
A :--------3-----------------------|--------3-----5---5------3-------|
E :5-----5---5---x-0-5-5---0-4-----|5-----5---5------------5---------|


G :--------------------------------|--------------------------------|
D :--------------------------------|--------------------------------|
A :--------3-----------------------|--------4-4---4-5-5---5-6-6-----|
E :5-----5---5---x-0-5-5---0-4-----|5-5---5-------------------------|


G :--------9-----------------------|--------9-------------------7-----|
D :----------6-----7-----8----9----|----------6-----7-(0)-7-8-9---9---|
A :7-------------------------------|7---------------------------------|
E :--------------------------------|----------------------------------|


G :--------9-----------------------|--------9-------------------7-----|
D :----------6-----7-----8----9----|----------6-----7-(0)-7-8-9---9---|
A :7-------------------------------|7---------------------------------|
E :--------------------------------|----------------------------------|


G :--------9-*---------------------|--------9-*-----------------7-----|
D :----------6--*--7--*--8--*-9--*-|----------6--*--7-(0)-7-8-9---9--*|
A :7--*----------------------------|7--*------------------------------|
E :--------------------------------|----------------------------------|


G :--------9-*---------------------|--------9-*-----------------7-----|
D :----------6--*--7--*--8--*-9--*-|----------6--*--7-(0)-7-8-9---9--*|
A :7--*----------------------------|7--*------------------------------|
E :--------------------------------|----------------------------------|


G :--------9-*---------------------|--------9-*-----------------7-----|
D :----------6--*--7--*--8--*-9--*-|----------6--*--7-(0)-7-8-9---9--*|
A :7--*----------------------------|7--*------------------------------|
E :--------------------------------|----------------------------------|


G :--------9-*---------------------|--------9-*-----------------7-----|
D :----------6--*--7--*--8--*-9--*-|----------6--*--7-(0)-7-8-9---9--*|
A :7--*----------------------------|7--*------------------------------|
E :--------------------------------|----------------------------------|


G :--------------------------------|---------------------------------|
D :--------------------------------|---------------------------------|
A :--------3-----------------------|--------3-----5---5------3-------|
E :5-----5---5---x-0-5-5---0-4-----|5-----5---5------------5---------|


G :--------------------------------|--------------------------------|
D :--------------------------------|--------------------------------|
A :--------3-----------------------|--------4-4---4-5-5---5-6-6-----|
E :5-----5---5---x-0-5-5---0-4-----|5-5---5-------------------------|


G :--------9-----------------------|--------9-------------------7-----|
D :----------6-----7-----8----9----|----------6-----7-(0)-7-8-9---9---|
A :7-------------------------------|7---------------------------------|
E :--------------------------------|----------------------------------|


G :--------9-----------------------|--------9-------------------7-----|
D :----------6-----7-----8----9----|----------6-----7-(0)-7-8-9---9---|
A :7-------------------------------|7---------------------------------|
E :--------------------------------|----------------------------------|


G :--------------------------------|--------------------------------|
D :-------9-7----------------------|----------7---------------------|
A :-----------9---7----------------|----7-8-9---9-------------------|
E :7-------------------------------|----------------5---------------|


G :----------------------------------|
D :----9-11--9-7---------------------|
A :--------------9-----7-----7-------|
E :7---------------------------------|


G :---10---------------------12-12-12-12--|
D :-----------10--------------------------|
A :8---------------10---------------------|
E :--------8------------------------------|


G :--------------------------------|--------------------------------|
D :-------9-7----------------------|----------7---------------------|
A :-----------9---7----------------|----7-8-9---9-------------------|
E :7-------------------------------|----------------5---------------|


G :----------------------------------|
D :----9-11--9-7---------------------|
A :--------------9-----7-----7-------|
E :7---------------------------------|


G :----10--------------------12-12-12-12--|| ------------------------ 4|
D :------------10-------------------------||*------------------------*||
A :-8---------------10--------------------||*------------------------*||
E :---------8-----------------------------|| ------------------------ ||


G :| ---------------------------------------- 4|
D :|*----------------------------------------*||
A :|*----------------------------------------*||
E :| ---------------------------------------- ||


G :--------------------------------|----------------|
D :--------------------------------|----------------|
A :--------------------------------|----------------|
E :--------------------------------|----------------|


G :--------9-----------------------|--------9-------------------7-----|
D :----------6-----7-----8----9----|----------6-----7-(0)-7-8-9---9---|
A :7-------------------------------|7---------------------------------|
E :--------------------------------|----------------------------------|


G :--------9-----------------------|--------9-------------------7-----|
D :----------6-----7-----8----9----|----------6-----7-(0)-7-8-9---9---|
A :7-------------------------------|7---------------------------------|
E :--------------------------------|----------------------------------|


G :--------------------------------|--------------------------------|
D :-------9-7----------------------|----------7---------------------|
A :-----------9---7----------------|----7-8-9---9-------------------|
E :7-------------------------------|----------------5---------------|


G :----------------------------------|
D :----9-11--9-7---------------------|
A :--------------9-----7-----7-------|
E :7---------------------------------|


G :----10--------------------12-12-12-12--|
D :------------10-------------------------|
A :-8---------------10--------------------|
E :---------8-----------------------------|


G :--------------------------------|--------------------------------|
D :-------9-7----------------------|----------7---------------------|
A :-----------9---7----------------|----7-8-9---9-------------------|
E :7-------------------------------|----------------5---------------|


G :----------------------------------|
D :----9-11--9-7---------------------|
A :--------------9-----7-----7-------|
E :7---------------------------------|


G :----10--------------------12-12-12-12--|
D :------------10-------------------------|
A :-8---------------10--------------------|
E :---------8-----------------------------|


G :| -------------------------------- 4|-------------------------------- 4|
D :|*--------------------------------*||--------------------------------*||
A :|*7-----------------4---5---4-5-6-*||7-----------------4---5---4-5-6-*||
E :| --4---5---6---7-----7----------- ||--4---5---6---7-----7----------- ||


G :--------------------------------|--------------------------------|
D :--------------------------------|--------------------------------|
A :7-----------------4---5---4-5-6-|7-----------------4---5---4-5-6-|
E :--4---5---6---7-----7-----------|--4---5---6---7-----7-----------|


G :--------------------------------|--------------------------------|
D :--------------------------------|--------------------------------|
A :7-----------------4---5---4-5-6-|7-----------------4---5---4-5-6-|
E :--4---5---6---7-----7-----------|--4---5---6---7-----7-----------|


G :--------------------------------|--------------------------------|
D :--------------------------------|--------------------------------|
A :7-----------------4---5---4-5-6-|7-----------------4---5---4-5-6-|
E :--4---5---6---7-----7-----------|--4---5---6---7-----7-----------|


G :--------------------------------|--------------------------------|
D :--------------------------------|--------------------------------|
A :7-----------------4---5---4-5-6-|7-----------------4---5---4-5-6-|
E :--4---5---6---7-----7-----------|--4---5---6---7-----7-----------|


G :------------12---*|
D :-----------------*|
A :-8-8-----10------*|
E :-----8-8---------*|



Get this song at amazon.com      Ebay     Ringtones Ringtones  


Learn to play: Songwriting, Piano, Harmonica, Guitar
More Red Hot Chili Peppers lyrics available at Muzikum

Related Red Hot Chili Peppers Bass Tabs

Under The Bridge (live) bass
What It Is bass
Flea Bass Solo Fix bass
Slane Castle Jam #1 bass
By The Way (Version 2) bass
Hey bass
Ill Be Your Domino bass
By The Way (at Last The Real Tab!!) bass
Overfunk (b-side) (corrected) bass
Give It Away (fleas Way- I've Seen Him Do It This Way) bass
Throw Away Your Telivision bass
Castles Made Of Sun bass
Bicycle Song bass
Blues For Meister bass
I Could Die For You bass
Stadium Arcadium bass
American Ghost Dance bass
Nevermind bass
Freaky Styley bass
Show Me Your Soul bass


Guitar Tabs









All tabs are property and copyright of their owners. All tabs provided for educational purposes only. Privacy Policy, DMCA