Red Hot Chili Peppers

Strom In A Teacup Bass Tabs



More from Red Hot Chili Peppers

Red Hot Chili Peppers Tabs
Red Hot Chili Peppers Chords
Red Hot Chili Peppers Bass
Red Hot Chili Peppers Lyrics




Intro
0:00

Rest

Verse 1
0:19
x4
G|-------------------------------------|
D|-------------------------------------|
A|-------------3-1---------------------|
E|-323-333-----------------------------|

Pre Chorus 1
0:37
x8
G|-------------------------------------|
D|-------------------------------------|
A|--------------3-1--------------------|
E|--323-333----------------------------|

Chorus 1
0:56
x3
G|-------------------------------------|
D|-------------------------------------|
A|-3333--1111--------------------------|
E|-----------------1111--3333----------|

Post Chorus 1
1:06

G|-------------------------------------|
D|-------------------------------------|
A|-3333--1111-555555555555558888-------|
E|-------------------------------------|

Bridge 1
1:17
x7
G|-------------------------------------|
D|-------------------------------------|
A|-------------------------------------|
E|-33-1--------------------------------|

Verse 2
1:27
x12
G|-------------------------------------|
D|-------------------------------------|
A|-------------3-1---------------------|
E|-323-333-----------------------------|

Chorus 2
1:55
x3
G|-------------------------------------|
D|-------------------------------------|
A|-3333--1111--------------------------|
E|-----------------1111--3333----------|


Post Chorus 2
2:09

G|-------------------------------------|
D|-------------------------------------|
A|-3333--1111-555555555555558888-------|
E|-------------------------------------|

Bridge 2
2:16
x7
G|-------------------------------------|
D|-------------------------------------|
A|-------------------------------------|
E|-33-1--------------------------------|

Guitar Solo
2:26

Rest

Verse 1
2:45
x8
G|-------------------------------------|
D|-------------------------------------|
A|-------------3-1---------------------|
E|-323-333-----------------------------|

Chorus 3
3;03
x3
G|-------------------------------------|
D|-------------------------------------|
A|-3333--1111--------------------------|
E|-----------------1111--3333----------|

Post Chorus 3
3:16

G|-------------------------------------|
D|-------------------------------------|
A|-3333--1111-555555555555558888-------|
E|-------------------------------------|

Bridge
3:24
x7
G|-------------------------------------|
D|-------------------------------------|
A|-------------------------------------|
E|-33-1--------------------------------|



Get this song at amazon.com      Ebay     Ringtones Ringtones  


Learn to play: Songwriting, Piano, Harmonica, Guitar
More Red Hot Chili Peppers lyrics available at Muzikum

Related Red Hot Chili Peppers Bass Tabs

So Much I bass
Other side bass
Knock Me Down bass
Battle Ship bass
Breaking The Girl! bass
Bunker Hill bass
Fleas Warm Up bass
Mellowship Slinky In Bminor bass
Slow Cheetah bass
Dani California bass
Flea Solo (@ Multi-show Viva) bass
Otherside bass
Why Dont You Love Me bass
No Chump Love Sucker bass
Arpeggiating bass
If You Want Me To Stay bass
Felas Cock bass
Soul To Squeeze (now Really 100% Correct !) bass
The Zephyr Song bass
Slane Castle Jam 2 bass


Guitar Tabs









All tabs are property and copyright of their owners. All tabs provided for educational purposes only. Privacy Policy, DMCA