Red Hot Chili Peppers

Storm In A Teacup (perfect) Bass Tabs



More from Red Hot Chili Peppers

Red Hot Chili Peppers Tabs
Red Hot Chili Peppers Chords
Red Hot Chili Peppers Bass
Red Hot Chili Peppers Lyrics




Song: Storm in a Teacup
Artist: Red Hot Chili Peppers
Album: Stadium Arcadium (CD-2)
Tabbed by: esteban herco


This is one of my favourite songs from stadium arcadium... hope
you like it too


s=slap
p=pop

Main Riff:

G|-------------------|-------------------|
D|-----5--5-5----5-3-|-----5--5-5----5-3-|
A|-------------------|-------------------|
E|-3-3---3-3-0h3-----|-3-3---3-3-0h3-----|
> s s p spsps p p s s p spsps p p


Riff #1:

G|---------------------|-----------------------|
D|---------------------|-----------------------|
A|-----------------3-1-|-----------------3-5-1-|
E|-3-1-3--3--1-3-1-----|-3-1-3--3--1-3-1-------|


Riff #2:

G|-----------------------------| x3
D|-----------------------------|
A|-3-3-3--1-11-1---------------|
E|----------------1--1--3-33-3-|

G|------------------------------------------|
D|------------------------------------3-3-3-|
A|--------1-11-1--5-5-5-5-5-5-5-5-5-5-------|
E|-3-3-3------------------------------------|

G|----------------------------------------------------|
D|----------------------------------------------------|
A|----------------------------------------------------|
E|-3-3--1--3-3--1--3-3--1--3-3--1--3-3--1--3-3--1--3--|
> s s s s s s s s s s s s s s s s s s s


Riff #3:

G|---------------------|
D|-5----3--------------|
A|-----------3----1----|
E|---------------------|

G|--------------|--5-3-------|-----3--------|-----------|
D|-----3---3h5--|------5--3--|-3-5---5-3----|-----------|
A|-3-5---5------|------------|------------5-|--3--------|
E|--------------|------------|--------------|-----------|




Structure:
>[no bass during Intro]
>Verse (Main Riffx4)
>Pre-chorus (Riff#1 x4)
>Chorus (Riff #2)
>Verse (Main Riffx4)
>Chorus (Riff #2)
>Interlude (Riff #3)
>Verse (Main Riffx4)
>Chorus (Riff #2)



Get this song at amazon.com      Ebay     Ringtones Ringtones  


Learn to play: Songwriting, Piano, Harmonica, Guitar
More Red Hot Chili Peppers lyrics available at Muzikum

Related Red Hot Chili Peppers Bass Tabs

Soul To Squeeze bass
I Feel Love bass
Flea Bass Solo Fix bass
Pea (live) bass
So Much I bass
Walkin On Down The Road bass
This Is The Place Intro bass
Cabron bass
Leverage Of Space Live bass
Sexy Mexican Maid bass
Off The Map Around The World bass
All Around The World (excently Perfect) bass
What Is Soul (from Off The Map) bass
Mellowship In Slinky B Major bass
By The Way (perfect) bass
Otherside ( Correct ) bass
Fire bass
Time bass
Fly bass
Apache Rose Peacock bass


Guitar Tabs









All tabs are property and copyright of their owners. All tabs provided for educational purposes only. Privacy Policy, DMCA