Red Hot Chili Peppers

Storm In A Teacup Bass Tabs



More from Red Hot Chili Peppers

Red Hot Chili Peppers Tabs
Red Hot Chili Peppers Chords
Red Hot Chili Peppers Bass
Red Hot Chili Peppers Lyrics



Song: Storm In A Teacup

Artist: Red Hot Chili Peppers

Album: Stadium Arcadium



Tabbed By: Marcos Prieto (webmaster at tabs-database.com.com)



Notation legend:



x -> mute.

\ -> slide up. \ It can be after or before the note, like 1h3,

/ -> slide down. | but if there's no enought space it can be

h -> hammer on. | over or down, like G|-13-...

p -> pull off. / D|--h-...

~ -> let ring.

r -> rest.

S -> slap.

P -> pop.

+ + -> the rhythm of the song, generally 4x4. If there are 2 digits notes

or there's no enough space, I lengthen it,

from (+ + ...) to (+ + ...)

|------| -> repeat this a number of times, for example |3-3-3-3| x4

repeats 3-3-3-3 four times.



Verse:



(0:09)



Gm

+ + + + + + + +

G||12121212121212121212121212121212|12121212121212121212121212121212||

D|--------------------------------|--------------------------------|

A|--------------------------------|--------------------------------|

E||--------------------------------|--------------------------------|| x2

\____________________________Fade In____________________________/





Gm

+ + + +

G||----------------||

D|----5--5----108-|

A|-----------/----|

E||3-3---3--368----|| x8

S S P SP SS P P



+ + + + + + + +

G||----------------|----------------||

D|----------------|-------------0--|

A|------------3-1-|------------3-1-|

E||--313-3-331-----|--313-3-331-----|| x4



Chorus:



C Bb F Gm C Bb F Gm

+ + + + + + + + + + + + + + + +

G|----------------|----------------|----------------|----------------|

D|----------------|----------------|----------------|----------------|

A|3-3-3--1-11-1-11|----------------|3-3-3--1-11-1-11|----------------|

E|----------------|1-1-1--3-33-3-33|----------------|1-1-1--3-33-3333|



C Bb F Gm C Bb D

+ + + + + + + + + + + + + + + +

G|----------------|----------------|----------------|----------------|

D|----------------|----------------|----------------|----------------|

A|3-3-3--1-11-1-11|----------------|3-3-3--1-11-1-11|5-5-5-5-5-5-5-5-|

E|----------------|1-1-1--3-33-3-33|----------------|----------------|



F

+ + + +

G|----------------|

D|--------3-3-3-3-|

A|5-5-5-5---------|

E|----------------|

__________________________ Chorus End ___________________________

/ \

Gm

+ + + + + + + + + + + + + + + +

G|----------------|----------------|----------------|----------------|

D|----------------|----------------|----------------|----------------|

A|----------------|----------------|----------------|----------------|

E|3-3-x1--3-3-x1--|3-3-x1--3-3-x1--|3-3-x1--3-3-x1--|3~--------------|



Verse 2:



+ + + +

G||----------------||

D|----------------|

A|-----REST-------|

E||----------------|| x2



(1:31)



Gm

+ + + + + + + +

G|12121212121212121212121212121212|12121212121212121212121212121212|

D|--------------------------------|--------------------------------|

A|--------------------------------|--------------------------------|

E|--------------------------------|--------------------------------|

\____________________________Fade In____________________________/



Gm

+ + + +

G||----------------||

D|----5--5----108-|

A|-----------/----|

E||3-3---3--368----|| x8

S S P SP SS P P



Chorus.



Bridge:



Gm F Dm C

+ + + + + + + + + + + + + + + +

G|----------------|----------------|----------------|----------------|

D|5~--------------|3~--------------|----------------|--------------5-|

A|----------------|----------------|5~--------------|3~----------35-3|

E|----------------|----------------|----------------|-------------/--|



Gm F Dm C

+ + + + + + + + + + + + + + + +

G|------------53--|------------5---|----------------|----------------|

D|5~------------5-|3~--------35-53-|----------------|----------------|

A|----------------|-----------h----|5~---------(5-53)3333333333333333|

E|----------------|----------------|---------------p|----------------|



Verse 3:



Gm

+ + + +

G||----------------||

D|----5--5----108-|

A|-----------/----|

E||3-3---3--368----|| x8

S S P SP SS P P



Chorus (Replace the Chorus End by Ending).



Ending:



Gm

+ + + + + + + + + + + + + + + +

G|----------------|----------------|----------------|----------------|

D|----------------|----------------|----------------|----------------|

A|----------------|----------------|----------------|----------------|

E|3-3-x1--3-3-x1--|3-3-x1--3-3-x1--|3-3-x1--3-3-x1--|3-3-x1--3-3-x1--|



Gm

+ + + + + + + +

G|----------------|----------------|

D|----------------|----------------|

A|----------------|----------------|

E|3~--------------|----------------|



***



NOTE: you can play the verse like this:



Gm

+ + + +

G||----------------||

D|----5--5----108-|

A|-----------/----|

E||3-3---3--368----|| x8

S S P SP SS P P



or like this:



Gm

+ + + +

G||------------5-3-||

D|----55-5---/----|

A|----------13----|

E||3-3---3--3------|| x8

S S P SP SS P P



i play like the 1st way, choose the best way for you.



__ _ __ __ _____ _____ _____

/ | / | / | / `\ / ___/ / __ / ( __/

/ |/ | / /|| / /) / // / / // \ \

/ /| /|| / /^|| / /|| //___ / / // ___) )

/ / | / || / / || / / || / / / ^^/ / /

^^^^^^^^^^^^^^^^^^^^^^^^^^^^^^^^^^^^^^^^^^^^^^^^^Added by tabs-database.com and our distinguished partners
Get this song at amazon.com      Ebay     Ringtones Ringtones  


Learn to play: Songwriting, Piano, Harmonica, Guitar
More Red Hot Chili Peppers lyrics available at Muzikum

Related Red Hot Chili Peppers Tabs

Cant Stop Live tabs
I Like Dirt tabs
Fortune Faded tabs
Midnight (4) tabs
Police Helicopter tabs
Mommy Wheres Daddy tabs
Get Up And Jump tabs
Gong Li tabs
Warlocks Bass tabs
Boyz N The Hood tabs
Turn It Again Bass tabs
Sex Rap tabs
Dani California Guitar Tab tabs
Tear Solo tabs
Dont Forget Me Bass tabs
Good Time Boys tabs
The Power Of Equality tabs
Dani California (w/solo) tabs
Melancholy Mechanics tabs
Baby Appeal (3) tabs


Guitar Tabs









All tabs are property and copyright of their owners. All tabs provided for educational purposes only. Privacy Policy, DMCA