Red Hot Chili Peppers

Stadium Arcadium - Jupiter Tabs



More from Red Hot Chili Peppers

Red Hot Chili Peppers Tabs
Red Hot Chili Peppers Chords
Red Hot Chili Peppers Bass
Red Hot Chili Peppers Lyrics



Jupiter

1. Dani California

tabbed by MnW



e|----------------|----------------|

B|-----5-------3--|-----6-------5--|

G|-----5-------4--|-----7-------5--|

D|-----7-------5--|-----7-------7--|2x

A|----------------|-5-5------------|

E|-5-5--x-3-3----|--------5-5-----|



Gettin' born in the state of Mississippi Papa was a copper and momma was a hippie

In Alabama, she would swing a hammer Price you gotta pay when you break the panorama

e|----------------|----------------|

B|-----5-------3--|-----6-------5--|

G|-----5-------4--|-----7-------5--|

D|-----7-------5--|-----7-------7--|2x

A|----------------|-5-5------------|

E|-5-5--x-3-3----|--------5-5-----|



She never knew that there was anything more than poor

e|-------------------------|--------------------|

B|-------------------------|--------------------|

G|-----5h7p5--------4h5p4--|------7------x----5-|

D|-7--------7-x-5-------5-|-0-----------x-5h7--|

A|-------------------------|--------------------|

E|-------------------------|--------------------|

What in the world does your company take me for

e|-------------------------|-----------------5\-|

B|-------------------------|-----------------5\-|

G|-----5h7p5--------4h5p4--|------7------x---5\-|

D|-7--------7-x-5-------5-|-0-----------x------|

A|-------------------------|--------------------|

E|-------------------------|--------------------|



(same as 1st verse)

Black bandana, sweet Louisiana

Robbin' on a bank in the state of Indiana

She's a runner, rebel and a stunner

condemned everywhere sayin' baby whatcha gonna



Lookin down the barrel of a hot METAL .45

e|-------------------------|--------------------|

B|-------------------------|--------------------|

G|-----5h7p5--------4h5p4--|------7------x----5-|

D|-7--------7-x-5-------5-|-0-----------x-5h7--|

A|-------------------------|--------------------|

E|-------------------------|--------------------|

Just another way to survive

e|-------------------------|-------------------|

B|-------------------------|-6-6-6-6-6-6-6-6-6-|

G|-----5h7p5--------4h5p4--|-7-7-7-7-7-7-7-7-7-|

D|-7--------7-x-5-------5-|-7-7-7-7-7-7-7-7-7-|

A|-------------------------|-5-5-5-5-5-5-5-5-5-|

E|-------------------------|-------------------|





Chorus:

California rest in peace,

Simultaneous release,

California Show your teeth,

e|-------------------------------------|

B|-------------------------------------|

G|-----------5-5-xx-5/7-7-7-7x7--------|

D|-3-3-3-xx--5-5-xx-5/7-7-7-7x7--5-5-5-|

A|-3-3-3-xx--3-3-xx-3/5-5-5-5x5--5-5-5-|

E|-1-1-1-xx----------------------3-3-3-| x3



She's my priestess I'm your priest Yeah Yeah

e|--------------------------------|--------------------|

B|--------------------------------|--------------------|

G|-----------5-5-xx-5/7-7-7-7x7x7-|-x7x7-x7x7----------|

D|-3-3-3-xx--5-5-xx-5/7-7-7-7x7x7-|-x7x7-x7x7----------| (number) means only first chorus

A|-3-3-3-xx--3-3-xx-3/5-5-5-5x5x5-|-x5x7-x5x5(5)---(0)|

E|-1-1-1-xx-----------------------|-------------(0h3)--|





(2 guitars)

e|-8---7---10---12---|-8---7---10---17---|

B|-------------------|-------------------|

G|-9---7---10---14---|-9---7---10---14---|

D|-------------------|-------------------|

A|-------------------|-------------------|

E|-------------------|-------------------|





She's a lover, baby and a fighter She should've seen it comin when it got a little brighter

With a name like Dani California The day was gonna come when I was gonna mourn ya

e|----------10--------|----------10--------|

B|-10---8--------10---|-10---8--------10---|

G|--------------------|--------------------|2x

D|--------------------|--------------------|

A|--------------------|--------------------|

E|--------------------|--------------------|

A little loaded she was stealing another breath

e|-------------------------|--------------------|

B|-------------------------|--------------------|

G|-----5h7p5--------4h5p4--|------7------x----5-|

D|-7--------7-x-5-------5-|-0-----------x-5h7--|

A|-------------------------|--------------------|

E|-------------------------|--------------------|

I love my baby to death

e|-------------------------|-------------------|

B|-------------------------|-6-6-6-6-6-6-6-6-6-|

G|-----5h7p5--------4h5p4--|-7-7-7-7-7-7-7-7-7-|

D|-7--------7-x-5-------5-|-7-7-7-7-7-7-7-7-7-|

A|-------------------------|-5-5-5-5-5-5-5-5-5-|

E|-------------------------|-------------------|





Chorus





Who knew the other side of you

Who knew the other side you proved

e|----7------7------|---7---------------|

B|----7------7------|---8---------------|

G|----7------7------|---7-------x-6-----|2x

D|------------------|-------------------|

A|------------------|-------------------|

E|------------------|-------------------|

Too true to say goodbye to you

e|----7------7------|---7---------------|

B|----7------7------|---8---------------|

G|----7------7------|---7-------x-6-----|

D|------------------|-------------------|

A|------------------|-------------------|

E|------------------|-------------------|

| | |

e|------------------|-------------------|

B|-12---------------|---12-------10-----|

G|------------------|-------------------|

D|------------------|-------------------|

A|------------------|-------------------|

E|------------------|-------------------|

Too true too sad sad sad

e|----7------7------|---7---------------|

B|----7------7------|---7---------------|

G|----7------7------|---7---------------|

D|------------------|-------------------|

A|------------------|-------------------|

E|------------------|-------------------|

| | |

e|------------------|-------------------|

B|-12---------------|-------------------|

G|------------------|-------------------|

D|------------------|-------------------|

A|------------------|-------------------|

E|------------------|-------------------|



First to fade her, gifted and I made her One for the now and eleven for the later

Never made it, up to Minnesota North Dakota man was a comin' for the quota

e|-------------------|-------------------|

B|-------------------|-------------------|

G|-9---7---10---9----|-9---7---10---14---|

D|-------------------|-------------------|

A|-------------------|-------------------|

E|-------------------|-------------------|

Down in the badlands she was saving the best for last

e|-------------------------|--------------------|

B|-------------------------|--------------------|

G|-----5h7p5--------4h5p4--|------7------x----5-|

D|-7--------7-x-5-------5-|-0-----------x-5h7--|

A|-------------------------|--------------------|

E|-------------------------|--------------------|

It only hurts when I laugh Gone too fast

e|-------------------------|-------------------|-------------------|

B|-------------------------|-6-6-6-6-6-6-6-6-6-|-9-9-9-9-9-9-9-9-9-|

G|-----5h7p5--------4h5p4--|-7-7-7-7-7-7-7-7-7-|-9-9-9-9-9-9-9-9-9-|

D|-7--------7-x-5-------5-|-7-7-7-7-7-7-7-7-7-|-9-9-9-9-9-9-9-9-9-|

A|-------------------------|-5-5-5-5-5-5-5-5-5-|-7-7-7-7-7-7-7-7-7-|

E|-------------------------|-------------------|-------------------|

| | | |

e|-------------------------|-13----------------|-16----------------|

B|-------------------------|-------------------|-------------------|

G|-------------------------|-------------------|-------------------|

D|-------------------------|-------------------|-------------------|

A|-------------------------|-------------------|-------------------|

E|-------------------------|-------------------|-------------------|





Chorus



2nd Chorus:

California rest in peace,

Simultaneous release,

e|-------------------------------------|

B|-------------------------------------|

G|-----------5-5-xx-5/7-7-7-7x7--------|

D|-3-3-3-xx--5-5-xx-5/7-7-7-7x7--5-5-5-|

A|-3-3-3-xx--3-3-xx-3/5-5-5-5x5--5-5-5-|

E|-1-1-1-xx----------------------3-3-3-|

| |2x

e|-------------------------------------|

B|-------------------------------------|

G|-10---------12-------14------1012p10|

D|-------------------------------------|

A|-------------------------------------|

E|-------------------------------------|



California Show your teeth,

e|-------------------------------------|

B|-------------------------------------|

G|-----------5-5-xx-5/7-7-7-7x7--------|

D|-3-3-3-xx--5-5-xx-5/7-7-7-7x7--5-5-5-|

A|-3-3-3-xx--3-3-xx-3/5-5-5-5x5--5-5-5-|

E|-1-1-1-xx----------------------3-3-3-|

| |

e|-----------12-------13---------10----|

B|-10----------------------------------|

G|-------------------------------------|

D|-------------------------------------|

A|-------------------------------------|

E|-------------------------------------|



She's my priestess I'm your priest Yeah Yeah

e|--------------------------------|-----------|

B|--------------------------------|-----------|

G|-----------5-5-xx-5/7-7-7-7x7x7-|-x7x7-x7x7-|

D|-3-3-3-xx--5-5-xx-5/7-7-7-7x7x7-|-x7x7-x7x7-|

A|-3-3-3-xx--3-3-xx-3/5-5-5-5x5x5-|-x5x7-x5x5-|

E|-1-1-1-xx-----------------------|-----------|

| | |

e|-----------12-------13----------|-17--------|

B|-10-----------------------------|-----------|

G|--------------------------------|-----------|

D|--------------------------------|-----------|

A|--------------------------------|-----------|

E|--------------------------------|-----------|





E|-----5-------------------------------------|

B|-----6-------------------------------------|

G|---5---7~----------------------------------|

D|-7--------7\5p35p3-5p3-5p3----------------|

A|---------------------------5-----------/5--|

E|------------------------------/5--3--1-----|



E|-----5----------------------------------------|

B|-----6--------------------------------13-15~/-|

G|---5---7~--2h5p2-5p2-5p2-5p2-5/7---14---------|

D|-7--------------------------------------------|

A|----------------------------------------------|

E|----------------------------------------------|



E|-----5-------------------------------------|

B|-----6-------------------------------------|

G|---5---7~----------------------------------|

D|-7--------7\5p35p3-5p3-5p3----------------|

A|---------------------------5-----------/5--|

E|------------------------------/5--3--1-----|



E|-----5----------------------------------------|

B|-----6--------------------------------13-15~/-|

G|---5---7~--2h5p2-5p2-5p2-5p2-5/7---14---------|

D|-7--------------------------------------------|

A|----------------------------------------------|

E|----------------------------------------------|



E|---------------------------------------------------------------|

B|------13-15-13----15-13----15-13----15-13----15-13----15-13----|

G|---14----------14-------14-------14-------14-------14-------14-|

D|---------------------------------------------------------------|

A|---------------------------------------------------------------|

E|---------------------------------------------------------------|



E|-----5----------------------------------------|

B|-----6----------------------------------------|

G|---5---7~--2h5p2-5p2-5p2-------------5--------|

D|-7-----------------------5p3---3-5/7---5p3----|

A|-----------------------------5-------------5--|

E|----------------------------------------------|



E|-----5----------------------------------------|

B|-----6--------------------------------13-b15~-|

G|---5---7~--2h5p2-5p2-5p2-5p2-5/7---14---------|

D|-7--------------------------------------------|

A|----------------------------------------------|

E|----------------------------------------------|



E|-----5-------------------------------------|

B|-----6-------------------------------------|

G|---5---7~----------------------------------|

D|-7--------7\5p35p3-5p3-5p3----------------|

A|---------------------------5-----------/5--|

E|------------------------------/5--3--1-----|



e|----------------------------------------------|

B|----10h13p10---10h13p10---10h13p10---10h13p10-|

G|-b12--------b12--------b12--------b12---------| played pretty fast

D|----------------------------------------------|repeat this a few times.

A|----------------------------------------------|

E|----------------------------------------------|



e|-13h15-15-13h15-15-13h15-15-13h15-15-|

B|-------------------------------------|

G|-------------------------------------| also pretty fast

D|-------------------------------------| repeat a few times

A|-------------------------------------|

E|-------------------------------------|



e|------13---------------------------------------------|

B|-13h15--15-13-----10h13p10---10h13p10----------------|

G|---------------b12--------b12--------b12~~p10--------|

D|----------------------------------------------12-----|

A|-----------------------------------------------------|

E|-----------------------------------------------------|



2. Snow((hey ho))

tabbed by Robert



Intro

----------------------------------I------------------------------------I

----------------------------------I------------------------------------I

----4---4h6h4---4-----4---4h6h4---I------------------------6---6h8h6---I

--6---6-------6-----6---6-------6-I----4---4h6h4---4-----8---8-------8-I

6-----------------7---------------I--6---6-------6---6/9---------------I

----------------------------------I7-----------------------------------I

x4







Verse 1

----------------------------------I------------------------------------I

----------------------------------I------------------------------------I

----4---4h6h4---4-----4---4h6h4---I------------------------6---6h8h6---I

--6---6-------6-----6---6-------6-I----4---4h6h4---4-----8---8-------8-I

6-----------------7---------------I--6---6-------6---6/9---------------I

----------------------------------I7-----------------------------------I

Repeat until bridge







Bridge

7-----7----7---7----7---7---7----7I7-----7---7---7----7---7---7----9---I

9-----9----9---9----9---9---9----9I9-----9---9---9----9---9---9----11--I

8-----8----8---8----8---8---8----8I8-----8---8---8----8---8---8----11--I

9-----9----9---9----9---9---9----9I9-----9---9---9----9---9---9----11--I

----------------------------------I------------------------------------I

----------------------------------I------------------------------------I



11--11--11--11--11--11--11--11----I11--11--11--11--11---9--9--9--------I

12--12--12--12--12--12--12--12----I12--12--12--12--12---11-11-11-------I

13--13--13--13--13--13--13--13----I13--13--13--13--13---11-11-11-------I

13--13--13--13--13--13--13--13----I13--13--13--13--13---11-11-11-------I

----------------------------------I------------------------------------I

----------------------------------I------------------------------------I



7-----7----7---7----7---7---7----7I7-----7---7---7----7---7---7----7---I

9-----9----9---9----9---9---9----9I9-----9---9---9----9---9---9----9---I

8-----8----8---8----8---8---8----8I8-----8---8---8----8---8---8----8---I

9-----9----9---9----9---9---9----9I9-----9---9---9----9---9---9----9---I

----------------------------------I------------------------------------I

----------------------------------I------------------------------------I







Chorus

7---7---7---7---7---7---7---7-----I6---6---6---6---6---6---6---6-------I

7---7---7---7---7---7---7---7-----I7---7---7---7---7---7---7---7-------I

8---8---8---8---8---8---8---8-----I8---8---8---8---8---8---8---8-------I

9---9---9---9---9---9---9---9-----I8---8---8---8---8---8---8---8-------I

9---9---9---9---9---9---9---9-----I------------------------------------I

----------------------------------I------------------------------------I



11--11--11--11--11--11--11--11----I11--11--11--11--11--11--11--11------I

12--12--12--12--12--12--12--12----I12--12--12--12--12--12--12--12------I

13--13--13--13--13--13--13--13----I13--13--13--13--13--13--13--13------I

----------------13--13--13--13----I13--13--13--13--13--13--13--13------I

----------------------------------I11--11--11--11--11--11--11--11------I

----------------------------------I----------------11--11--11--11------I

Repeat until verse







Verse 2

----------------------------------I------------------------------------I

----------------------------------I------------------------------------I

----4---4h6h4---4-----4---4h6h4---I------------------------6---6h8h6---I

--6---6-------6-----6---6-------6-I----4---4h6h4---4-----8---8-------8-I

6-----------------7---------------I--6---6-------6---6/9---------------I

----------------------------------I7-----------------------------------I

Repeat until bridge







Bridge

7-----7----7---7----7---7---7----7I7-----7---7---7----7---7---7----9---I

9-----9----9---9----9---9---9----9I9-----9---9---9----9---9---9----11--I

8-----8----8---8----8---8---8----8I8-----8---8---8----8---8---8----11--I

9-----9----9---9----9---9---9----9I9-----9---9---9----9---9---9----11--I

----------------------------------I------------------------------------I

----------------------------------I------------------------------------I



11--11--11--11--11--11--11--11----I11--11--11--11--11---9--9--9--------I

12--12--12--12--12--12--12--12----I12--12--12--12--12---11-11-11-------I

13--13--13--13--13--13--13--13----I13--13--13--13--13---11-11-11-------I

13--13--13--13--13--13--13--13----I13--13--13--13--13---11-11-11-------I

----------------------------------I------------------------------------I

----------------------------------I------------------------------------I



7-----7----7---7----7---7---7----7I7-----7---7---7----7---7---7----7---I

9-----9----9---9----9---9---9----9I9-----9---9---9----9---9---9----9---I

8-----8----8---8----8---8---8----8I8-----8---8---8----8---8---8----8---I

9-----9----9---9----9---9---9----9I9-----9---9---9----9---9---9----9---I

----------------------------------I------------------------------------I

----------------------------------I------------------------------------I







Chorus

7---7---7---7---7---7---7---7-----I6---6---6---6---6---6---6---6-------I

7---7---7---7---7---7---7---7-----I7---7---7---7---7---7---7---7-------I

8---8---8---8---8---8---8---8-----I8---8---8---8---8---8---8---8-------I

9---9---9---9---9---9---9---9-----I8---8---8---8---8---8---8---8-------I

9---9---9---9---9---9---9---9-----I------------------------------------I

----------------------------------I------------------------------------I



11--11--11--11--11--11--11--11----I11--11--11--11--11--11--11--11------I

12--12--12--12--12--12--12--12----I12--12--12--12--12--12--12--12------I

13--13--13--13--13--13--13--13----I13--13--13--13--13--13--13--13------I

----------------13--13--13--13----I13--13--13--13--13--13--13--13------I

----------------------------------I11--11--11--11--11--11--11--11------I

----------------------------------I----------------11--11--11--11------I

Repeat until outro/solo







Outro/solo (with distortion)

----------------------------------I------------------------------------I

7---------------7--------7--------I11--------------11-------11---------I

9b11------------9b11-----9b11-----I13b15-----------13b15----13b15------I

----------------------------------I------------------------------------I

----------------------------------I------------------------------------I

----------------------------------I------------------------------------I



16--------------16-------16-------I16--------------16-------16----16---I

19b21-----------19b21----19b21----I19b21-----------19b21----19b21-19b21I

----------------------------------I------------------------------------I

----------------------------------I------------------------------------I

----------------------------------I------------------------------------I

----------------------------------I------------------------------------I



----------------------------------I------------------------------------I

7---------------7--------7--------I11--------------11-------11---------I

9b11------------9b11-----9b11-----I13b15-----------13b15----13b15------I

----------------------------------I------------------------------------I

----------------------------------I------------------------------------I

----------------------------------I------------------------------------I



----------------------------------I------------------------------------I

9---------------------------------I------------------------------------I

11b13-----------------------------I------------------------------------I

----------------------------------I------------------------------------I

----------------------------------I------------------------------------I

----------------------------------I------------------------------------I



3. Charlie

tabbed by MnW



e|--------------------------|

B|--------------------------|

G|-----------3-----------3--|

D|-----3---2-------3---2----|

A|---2---1-------2---1------|

E|-1-----------1------------|



e|-3-3-x-3-x-3---3-3-x-3-x-3---|

B|-3-3x-3-x-3---3-3-x-3-x-3---|

G|-3-3x-3-x-3---3-3-x-3-x-3---|repeat

D|-----------------------------|

A|-----------------------------|

E|-----------------------------|



On the boards, stitchin' time Get yours, got mine

In a minute Ill be there Sit tight get square

You could do it at the hippodrome Slide back trombone

Anybody got a TV at home Thats right unknown

e|-3-3-x-3-x-3---3-3-x-3-x-3---|

B|-3-3x-3-x-3---3-3-x-3-x-3---|

G|-3-3x-3-x-3---3-3-x-3-x-3---|repeat

D|-----------------------------|

A|-----------------------------|

E|-----------------------------|



When I pick up on that smell

Pick it up and run like hell

Little woman save me some

Better get up on your run

e|-15-15-x-15-x-15---15-15-x-15-x-15---|

B|-15-15-x-15-x-15---15-15-x-15-x-15---|

G|-15-15-x-15-x-15---15-15-x-15-x-15---|repeat

D|-------------------------------------|

A|-------------------------------------|

E|-------------------------------------|



e|-15-15-x-15-x-15---15-15-x-15-x-15---|

B|-15-15-x-15-x-15---15-15-x-15-x-15---|

G|-15-15-x-15-x-15---15-15-x-15-x-15---|repeat

D|-------------------------------------|

A|-------------------------------------|

E|-------------------------------------|



Chorus:

So much more than Charlie's wakin' me

To my core and Charlie's shakin' me

Tell my story Charlie's makin' me

e|-----------------|-------------------|

B|-----------------|-------------------|

G|-x-x-8-8-x-x-7-7-|-x-x-10-10-x-x-8-8-|

D|-x-x-8-8-x-x-8-8-|-x-x-10-10-x-x-8-8-|

A|-----------------|-------------------|

E|-----------------|-------------------|

Charlie's makin' me smile

e|-----------------|---------------------------8--8-8--8--8--8-8-|

B|-----------------|-x-10-10-x-x-10-10-10-x-x-10-10-10-10-10-10-10-|

G|-x-x-8-8-x-x-7-7-|-x-10-10-x-x-10-10-10-x-x-10-10-10-10-10-10-10-|

D|-x-x-8-8-x-x-8-8-|-x-10-10-x-x-10-10-10-x-x----------------------|

A|-----------------|-----------------------------------------------|

E|-----------------|-----------------------------------------------|



Everybody do the twist Get the message, awfully swiss

Move around like a scientist Lay down, get kicked

Big picture and it never lies Big daddy scooted by

Every wedding in disguise Some set, sometimes



When I pick up on that smell

Pick it up and run like hell

Little woman, sing me a song

Gotta get up on your run



Solo:

e|---------------------------------b13------------------------------------|

B|---------------11-13-b13----13p11-----b13~~p11-13-13-13p11--b11~~r~~b~~-|

G|-10h12\------12---------------------------------------------------------|

D|------------------------------------------------------------------------|

A|------------------------------------------------------------------------|

E|------------------------------------------------------------------------|



Chorus



e|-------------------|-------------------|

B|-------------------|-------------------|

G|-7--5---5----------|-7--5---5----------|

D|------8---8-7--5--|------8---8--7--5--|

A|-------------------|-------------------|

E|-------------------|-------------------|



My heart, your skin This love, I'm in

We don't arrive, without a surprise

You're right, I'm wrong We're freed, belong

Intimate sight has come in to light

e|-------------------|-------------------|

B|-------------------|-------------------|

G|-7--5---5----------|-7--5---5----------|

D|------8---8-7--5--|------8---8--7--5--|

A|-------------------|-------------------|

E|-------------------|-------------------|



When i pick up on that smell

Pick it up and run like hell

Little women send me some

Better get up on your run

All i ever wanted too

Was pick it up and run with you

Slip it into a summer spell

Double up and run like hell



Solo:

e|---------------------------------------------------13-15--------------|

B|---------------------------b13~~p11-----------b13---------b13~~p11----|

G|-10h12p10-12p10-12p10-etc-----------12--12-10---------------------12--|

D|----------------------------------------------------------------------|

A|----------------------------------------------------------------------|

E|----------------------------------------------------------------------|



Chorus



My heart, your skin This love, I'm in

We don't arrive, without a surprise

You're right, I'm wrong We're freed, belong

Intimate sight has come in to light



My heart, your skin This love, I'm in

We don't arrive, without a surprise

You're right, I'm wrong We're freed, belong

e|-------------------|-------------------|

B|-------------------|-------------------|

G|-7--5---5----------|-7--5---5----------|

D|------8---8-7--5--|------8---8--7--5--|

A|-------------------|-------------------|

E|-------------------|-------------------|

Intimate sight has come in to light

e|-10-----------------|-10-----------------|

B|---13-11-13-11-10---|---13-11-13-11-10---|

G|-----------------12-|-----------------12-|

D|--------------------|--------------------|

A|--------------------|--------------------|

E|--------------------|--------------------|



Solo:

e|--------------------------------------------------------------------------------|

B|-----------------------------b13-11---------b13-11------------11h13-11----------|

G|-b10-10p7-b10-b10-10p7-b10-------12-10-12-------12-10-12-12----------12-10-12-|

D|--------------------------------------------------------------------------------|

A|--------------------------------------------------------------------------------|

E|--------------------------------------------------------------------------------|



e|------------------------------------------------------|

B|------------------------------------------------------|

G|-12-10------------------------------------------------|

D|-------12-b10--8-10-8-10p8-----b8---------------------|

A|---------------------------10----10p8h10-10p8---8h10--|

E|---------------------------------------------10-------|



e|-------------------|--------------------|

B|-------------------|--------------------|

G|-7--5---5----------|-7--5---5---------3-|repeat

D|------8---8-7-3h5-|------8---8--7-3h5--|

A|-------------------|--------------------|

E|-------------------|--------------------|



e|-------------------|--------------------------|

B|-------------------|--------------------------|

G|-7--5---5----------|-7--5---5-----------------|

D|------8---8-7-3h5-|------8---8--7--5--3-3h5--|

A|-------------------|--------------------------|

E|-------------------|--------------------------|



4. Stadium Arcadium

tabbed by MnW



e|--------------------|--------------------|

B|--------------------|--------------------|

G|-------2-----2------|-------6-----6------|

D|-----4-----4--------|-----7-----7--------|

A|---4-----4----------|---7-----7----------|

E|-2------------------|-5------------------|



e|--------------------|-5---------7--------|

B|--------------------|-5---------9--------|

G|-------2-----2------|-6---------9--------|

D|-----4-----4--------|-7---------9--------|

A|---4-----4----------|-7---------7--------|

E|-2------------------|-5------------------|





Bells around St. Petersburg When I saw you

e|--------------------|--------------------|

B|--------------------|--------------------|

G|-------2-----2------|-------6-----6------|

D|-----4-----4--------|-----7-----7--------|

A|---4-----4----------|---7-----7----------|

E|-2------------------|-5------------------|

I hope I get what you deserve And this is where I find

e|--------------------|-5---------7--------|

B|--------------------|-5---------9--------|

G|-------2-----2------|-6---------9--------|

D|-----4-----4--------|-7---------9--------|

A|---4-----4----------|-7---------7--------|

E|-2------------------|-5------------------|





Smoke surrounds your perfect face And Im falling

e|--------------------|-----------------------|

B|--------------------|-----------------------|

G|-------2-----2------|-------6-----6--6h7-6--|

D|-----4-----4--------|-----7-----7---------7-|

A|---4-----4----------|---7-----7-------------|

E|-2------------------|-5---------------------|

| | |

e|17p14h17p14h17p14h17|17p12h17p12h17p12h17p12|

B|--------------------|-----------------------|

G|--------------------|-----------------------|

D|--------------------|-----------------------|

A|--------------------|-----------------------|

E|--------------------|-----------------------|

Pushing a broom out into space And this is where I find a way

e|--------------------|-5---------0--x-0-0-|

B|--------------------|-5---------0--x-0-0-|

G|-------2-----2------|-6---------1--x-1-1-|

D|-----4-----4--------|-7---------2--x-2-2-|

A|---4-----4----------|-7---------2--------|

E|-2------------------|-5---------0--------|

| | |

e|17p14h17p14h17p14h17|17p12h17p12h17p12h17|

B|--------------------|--------------------|

G|--------------------|--------------------|

D|--------------------|--------------------|

A|--------------------|--------------------|

E|--------------------|--------------------|





Chorus:

Bm

The stadium arcadium

D

A mirror to the moon

A

Im forming Im warming

E

State of the art Until the clouds come crashing



Bm

Stranger things have happened

D

Both before and after noon

A

Im forming Im warming

E

Pushing myself And no I dont mind asking



e|--------------------|--------------------|

B|--------------------|--------------------|

G|-------2-----2------|-------6-----6------|

D|-----4-----4--------|-----7-----7--------|

A|---4-----4----------|---7-----7----------|

E|-2------------------|-5------------------|

| | |

e|-14-----------------|--------------------|

B|---------------17---|-14-------------------|

G|--------------------|--------------------|

D|--------------------|--------------------|

A|--------------------|--------------------|

E|--------------------|--------------------|



e|--------------------|-5---------7--------|

B|--------------------|-5---------9--------|

G|-------2-----2------|-6---------9--------|

D|-----4-----4--------|-7---------9--------|

A|---4-----4----------|-7---------7--------|

E|-2------------------|-5------------------|

| | |

e|--------------------|--------------------|

B|-14-----------------|-----------17-------|

G|----------------16--|-14--------13-------|

D|--------------------|--------------------|

A|--------------------|--------------------|

E|--------------------|--------------------|





Alone inside my forest room And its storming

e|--------------------|--------------------|

B|--------------------|--------------------|

G|-------2-----2------|-------6-----6------|

D|-----4-----4--------|-----7-----7--------|

A|---4-----4----------|---7-----7----------|

E|-2------------------|-5------------------|

| | |

e|--------------------|--------------------|

B|--------------------|--------------------|

G|--------------------|--------------------|

D|-16-----------------|--------------------|

A|--------------------|--------------------|

E|--------------------|--------------------|

I never thought Id be in bloom But this is where I start

e|--------------------|-5---------7--------|

B|--------------------|-5---------9--------|

G|-------2-----2------|-6---------9--------|

D|-----4-----4--------|-7---------9--------|

A|---4-----4----------|-7---------7--------|

E|-2------------------|-5------------------|



Derelict days and the stereo plays For the all night crowd

That it cannot phase And Im calling

e|--------------------|--------------------|

B|--------------------|--------------------|

G|-------2-----2------|-------6-----6------|

D|-----4-----4--------|-----7-----7----b4r-|

A|---4-----4----------|---7-----7----------|

E|-2------------------|-5------------------|

Tedious weeds that the media breeds

But the animal gets what the animal needs And Im sorry

e|--------------------|-5---------7--------|

B|--------------------|-5---------9--------|

G|-------2-----2------|-6---------9--------|

D|-----4-----4--------|-7---------9--------|

A|---4-----4----------|-7---------7--------|

E|-2------------------|-5------------------|



Chorus



Bridge:

e|-------------------------------------------------|

B|-------------------------------------------------|

G|-------------------------------------6--6-6--6-6-|

D|-4--4-4--4-4-6--6-6--6-6-7--7-7--7-7-6--6-6--6-6-|repeat 6x

A|-4--4-4--4-4-6--6-6--6-6-7--7-7--7-7-4--4-4--4-4-|

E|-2--2-2--2-2-4--4-4--4-4-5--5-5--5-5-------------|

| |

e|-------------------------------------------------|

B|-------------------------------------------------|

G|--------------------------------------11---9-----|

D|-b9-------------------------------------------11-|

A|-------------------------------------------------|

E|-------------------------------------------------|



e|-------------------------------------------------|

B|-------------------------------------------------|

G|-b9r-------------------------------------9-------|

D|--------------------------------------b9~~~rp7---|

A|-------------------------------------------------|

E|-------------------------------------------------|



e|-------------------------------------------------|

B|----------------------------------------7--9-----|

G|-------------------------------------------------|

D|-9h11---------------------------------b9~~~~rp7--|

A|-------------------------------------------------|

E|-------------------------------------------------|



e|-------------------------------------------------|

B|----------------------------------------------7--|

G|-------------------------------------------9-----|

D|-9p7-----------------------------------b9--------|

A|--------------------------9----------------------|

E|-------------------------------------------------|



e|------------------------------------------------------|

B|------------------------------------------------------|

G|-4--4-4--4-4-6--6-6--6-6-7--7-7--7-7-11--11-11--11-11-|repeat 2x

D|-4--4-4--4-4-6--6-6--6-6-7--7-7--7-7-11--11-11--11-11-|

A|-2--2-2--2-2-4--4-4--4-4-5--5-5--5-5--9---9--9---9--9-|

E|------------------------------------------------------|

| |

e|------------------------------------------------------|

B|--------------------------------------------7--10-9-7-|

G|-------------------------------------------7----------|

D|-b9r--------------------------------------9-----------|

A|------------------------------------------------------|

E|------------------------------------------------------|



e|------------------------------------------------------|

B|-b9-7---------------------------b10----10---9---7h10--|

G|------------------------------------------------------|

D|------------------------------------------------------|

A|------------------------------------------------------|

E|------------------------------------------------------|



e|-------------------------------------------------|

B|-------------------------------------------------|

G|-------------------------------------6--6-6--6-6-|

D|-4--4-4--4-4-6--6-6--6-6-7--7-7--7-7-6--6-6--6-6-|repeat 2

A|-4--4-4--4-4-6--6-6--6-6-7--7-7--7-7-4--4-4--4-4-|

E|-2--2-2--2-2-4--4-4--4-4-5--5-5--5-5-------------|

| |

e|-------------------------------------------------|

B|-7-----------------------------------------------|

G|-------------------------------------b9~~r~~p6---|

D|-------------------------------------------------|

A|-------------------------------------------------|

E|-------------------------------------------------|



e|-------------------------------------------------|

B|-7-----------------------------------------------|

G|-----------------------------------------9-------|

D|--------------------------------------b9~~~r9-7--|

A|-------------------------------------------------|

E|-------------------------------------------------|











e|--9---9---9---9---9---9---9---9---9---9---9---9--|

B|--9---9---9---9---9---9---9---9---9---9---9---9--|

G|--9---9---9---9---9---9---9---9---9---9---9---9--|

D|-11--11--11--11--11--11--11--11--11--11--11--11--|didnt tab the rhythm.

A|-11--11--11--11--11--11--11--11--11--11--11--11--| Youve got to find yourself

E|--9---9---9---9---9---9---9---9---9---9---9---9--|

| |

e|---------------------------------9--11--9--------|

B|--------------------------------9---------12-----|

G|-------------------------------9-------------b11-|

D|-9/11------------------------11------------------|

A|-------------------------------------------------|

E|-------------------------------------------------|



e|-------9--9--9--9--9--9--9--9--9--9--9--9--9--9--|

B|-------7--7--7--7--7--7--7--7--7--7--7--7--7--7--|

G|-------7--7--7--7--7--7--7--7--7--7--7--7--7--7--|

D|----9--9-9--9--9--9--9--9--9--9--9--9--9--9--9--|

A|-9--9--9-----------------------------------------|

E|-7--7--------------------------------------------|

| |

e|---------------------------------9--7------------|

B|--------------------------------7------10b9~~r--|

G|-11p9h11-----------------------7-----------------|

D|------------------------------9------------------|

A|-------------------------------------------------|

E|-------------------------------------------------|



e|--------------------|--------------------|

B|--------------------|--------------------|

G|-------2-----2------|-------6-----6------|

D|-----4-----4--------|-----7-----7--------|

A|---4-----4----------|---7-----7----------|

E|-2------------------|-5------------------|

| | |

e|--------------------|--------------------|

B|-7------------------|--------------------|

G|--------------------|--------------------|

D|--------------------|--------------------|

A|--------------------|--------------------|

E|--------------------|--------------------|

And this is where I find

e|--------------------|-5---------7--------|

B|--------------------|-5---------9--------|

G|-------2-----2------|-6---------9--------|

D|-----4-----4--------|-7---------9--------|

A|---4-----4----------|-7---------7--------|

E|-2------------------|-5------------------|





Rays of dust that wrap around

Your citizen

Kind enough to disavow

And this is where I stand



Chorus



Bm

The stadium arcadium

D

A mirror to the moon

A

Im forming Im warming

E

State of the art Until the clouds come crashing



Bm

Stranger things have happened

D

Both before and after noon

A E

Im forming Im warming to you





5. Hump de Bump

tabbed by Cedarock



Standard Tuning



Intro

e|-------------------------------------------------------------------------------|

B|---6-- 6-- 6--6--6---6---------------------------------------------------------|

G|---5-- 5---5--5--5---5---------------------------------------------------------|

D|---4-- 4---4--4--4---4---------------------------------------------------------|

A|---5-- 5---5--5--5---5---------------------------------------------------------|

E|-------------------------------------------------------------------------------|



Verse

e|-----------------------------------------------------------------------------|

B|-----------------------------------------------------------------------------|

G|----7-5--5-x--7-5-5-x-5-7----------------------------------------------------|

D|-----------------------------------------------------------------------------|

A|-----------------------------------------------------------------------------|

E|-----------------------------------------------------------------------------|



Verse Fill



e|----------------|

B|-----6h8p6------|

G|----------------|





Pre-Chorus (Hump De Bump part) - with muting in between notes

e|-----x--x--- x--x---x-------------- x-----------------------------------------|

B|-----7--6--- 7--6---6h7----(x7)-----7-----7--7-7-7-7-7-7-7-7------------------|

G|-----5- 5--- 5--5---5-------------- 5-----7--7-7-7-7-7-7-7-7------------------|

D|-----x- x--- x--x---x-------------- x-----7--7-7-7-7-7-7-7-7------------------|

A|---------------------------------------- 5--5-5-5-5-5-5-5-5------------------|

E|------------------------------------------------------------------------------|



Chorus (second time don't play after the *)



D7#9 Bb7 A7 Dm/F Bb7 C

e|----------1--1---------------------------------------------------------------|

B|--6--6----3--3---5--5---6---6------------------------------------------------|

G|- 5--5----1--1---6--6---7---7------------------------------- 5---------------| (x2)

D|- 4--4----3--3---5--5---6---6-----------3--------------5h7--5----------------|

A|- 5--5----1--1---7--7---8---8----1--3h5---5-----3*-5h7-----------------------|

E|-----------------5--5------- ------------------------------------------------|





Bridge/Percussion Solo - strum Dm (x57765) and crescendo (soft to loud)



End on

e|--------|

B|----6---|

D|--- 5---|

G|------- |

A|------- |

E|--------|



Intro

Verse

Pre-Chorus

Chorus

Verse

Pre Chorus

Chorus

Bridge/Percussion Solo

Pre-Chorus

Chorus





| / slide up

| slide down

| h hammer-on

| p pull-off

| ~ vibrato

| + harmonic

| x Mute note



6. She's only 18

tabbed by doylerrhcp



Verse



Riff A



e --------------------/------------------|

B --------------------/------------------|

G ------3h5p3----3----/-------3h5p3---3--|

D ---3h5------h5---5--/---3h5-------h5---|

A --------------------/------------------|

E --------------------/------------------|



Riff B



e -------6h8p6----6---/------6h8p6----6-|

B ---6h8-------h8---8-/--6h8-------h8---|

G --------------------/-----------------|

D --------------------/-----------------|

A --------------------/-----------------|

E --------------------/-----------------|





Verse structure:



Riff A x8

Riff B x4

Riff A x2



Chorus:



C min D# maj G min F maj



e --3--------------/----3-----------1--------|

B --4---------8----/----3-----------1--------|

G --5---------8----/----3-----------2--------|

D --5---------8----/----5-----------3--------|

A --3---------6----/----5-----------3--------|

E -----------------/----3-----------1--------|





e --------/-----------------------------------

B ---11---/--13-------------------------------

G ---12---/--14-------------------------------

D --------/-----------------------------------

A --------/-----------------------------------

E --------/-----------------------------------

Solo Tab by Nevj

Guitar



Tuning EADGBE





2:19

E|-------------------------------------------------------------|

B|-------------------------------------------------------------|

G|-------------------------------------------------------------|

D|---------1-3/5--1--3-1h3v-------1-3/5--1-3-1-----------------|

A|----1/3---------------------1-3------------------------------|

E|-------------------------------------------------------------|



2:25

E|-------------------------------------------------------------|

B|--------------------------4b-----------6b7-4h6v--------------|

G|------3-5-3-5v---------3-5--5v-----3-5-----------------------|

D|--3/5--------------3/5---------------------------------------|

A|--fast-------------------------------------------------------|

E|-------------------------------------------------------------|





E|-------6v----6-8---------------------------------------------|

B|---6/8-----8------8p6(p)4---6-6p4---4-6/8-6v--6-4------------|

G|----------------------------------5--------------------------|

D|-------------------------------------------------------------|

A|-------------------------------------------------------------|

E|-------------------------------------------------------------|



2:33

E|-------------------------------------------------------------|

B|--6-6-6-6p4--6-6p4--6-6p4--6-6p4--6-6p4----------------------|

G|-------------------------------------------------------------|

D|-------------------------------------------------------------|

A|-------------------------------------------------------------|

E|-------------------------------------------------------------|



E|---------6-10b11-8v------------x-----------13bbbbb15---------|

B|--6-4-6/8-8--------------------------------------------------|

G|-------------------------------------------------------------|

D|-------------------------------------------------------------|

A|-------------------------------------------------------------|

E|-------------------------------------------------------------|



2:40

E|---13b15-13p11-13v----13/15--18vvvvp15-----------------------|

B|--------------------------------------18p16--18-18-18p16-----|

G|---------------------------------------------------------17--|

D|-------------------------------------------------------------|

A|-------------------------------------------------------------|

E|-------------------------------------------------------------|



E|----------19-------------------------------------------------|

B|-16-18b19-------19r18p16-18-18-18-16----17\------------------|

G|-------------------------------------17----------------------|

D|-------------------------------------------------------------|

A|-------------------------------------------------------------|

E|-------------------------------------------------------------|



I think this is pretty accurate.



7. Slow Cheetah

tabbed by omer5omer5



Play all the notes between ( )

E E S S E E E S S E

E||----------------------------------------------------------------|

B||----------------------------------------------------------------|

G||----------------------------------------6----------------6------|

D||---------------------------------8----------------6-------------|

A||-----------------------------------------------4-----(4)---(4)--|

E||--6---------------------------------(6)---(6)-------------------|





E E S S E E E S S E E E S S E E E S S E

-----------------------------6------|------------------------------------|

------------6-----------------------|------------------------------------|

-----8----------------6-------------|------------6----------------6------|

-------------------4-----(4)---(4)--|-----8----------------6-------------|

--6-----(6)---(6)-------------------|-------------------4-----(4)---(4)--|

------------------------------------|--6-----(6)---(6)-------------------|





VOZ

E E S S E E E S S E E E S S E E E S S E

-----------------------------6------|-------------------------------------|

------------6-----------------------|-------------------------------------|

-----8----------------6-------------|-------------6----------------6------|

-------------------4-----(4)---(4)--|------8----------------6-------------|

--6-----(6)---(6)-------------------|--------------------4-----(4)---(4)--|

------------------------------------|--6------(6)---(6)-------------------|





E E S S E E E S S E E E S S E E E S S E

-----------------------------6------|------------------------------------|

------------6-----------------------|------------------------------------|

-----8----------------6-------------|------------6----------------6------|

-------------------4-----(4)---(4)--|-----8----------------6-------------|

--6-----(6)---(6)-------------------|-------------------4-----(4)---(4)--|

------------------------------------|--6-----(6)---(6)-------------------|





E E S S E E E S S E E E S S E E E S S E

-----------------------------6------|-----8S--(6)-6-L-------------------|

------------6-----------------------|---------------L-----9------6------|

-----8----------------6-------------|-----------------------------------|

-------------------4-----(4)---(4)--|-----------------------------------|

--6-----(6)---(6)-------------------|-----------------------------------|

------------------------------------|--6------(6)------9-----(9)---(9)--|





E E S S E E E S S E E E S S E E E S S E

------------------------------------|-----8S--(6)-6-L-------------------|

------------------------------------|---------------L-----9------6------|

-----8------6-----------------------|-----------------------------------|

----------------------8------6------|-----------------------------------|

--6-----(6)---(6)--9-----(9)---(9)--|-----------------------------------|

------------------------------------|--6------(6)------9-----(9)---(9)--|





Bajo

E E S S E E E S S E E E S S E E E S S E

------------------------------------|--------------------------------------|

------------------------------------|--------------------------------------|

-----8------6----------------6------|--------------6----------------6------|

----------------------8-------------|-------8----------------6-------------|

--6-----(6)---(6)--9-----(9)---(9)--|---------------------4-----(4)---(4)--|

------------------------------------|--6-------(6)---(6)-------------------|





E E S S E E E S S E E E S S E E E S S E

-----------------------------6------|------------------------------------|

------------6-----------------------|------------------------------------|

-----8----------------6-------------|------------6----------------6------|

-------------------4-----(4)---(4)--|-----8----------------6-------------|

--6-----(6)---(6)-------------------|-------------------4-----(4)---(4)--|

------------------------------------|--6-----(6)---(6)-------------------|





E E S S E E E S S E E E S S E E E S S E

-----------------------------6------|-----8S--(6)-6-L-------------------|

------------6-----------------------|---------------L-----9------6------|

-----8----------------6-------------|-----------------------------------|

-------------------4-----(4)---(4)--|-----------------------------------|

--6-----(6)---(6)-------------------|-----------------------------------|

------------------------------------|--6------(6)------9-----(9)---(9)--|





E E S S E E E S S E E E S S E E E S S E

------------------------------------|-----8S--(6)-6-L-------------------|

------------------------------------|---------------L-----9------6------|

-----8------6-----------------------|-----------------------------------|

----------------------8------6------|-----------------------------------|

--6-----(6)---(6)--9-----(9)---(9)--|-----------------------------------|

------------------------------------|--6------(6)------9-----(9)---(9)--|





Q E. S S S E E. S E E E S E S S S S S S S

--6----6---6-6-6-6--6---6-|--6--6--6--6-6--6-6-6-6-6-6-6-|

--6----6---6-6-6-6--6---6-|--6--6--6--6-6--6-6-6-6-6-6-6-|

--8----8---8-8-8-8--8---8-|--8--8--8--8-8--8-8-8-8-8-8-8-|

--8----8---8-8-8-8--8---8-|--8--8--8--8-8--8-8-8-8-8-8-8-|

--6----6---6---6----6---6-|-----6--6--6-6--6-6-6-6-6-6-6-|

--------------------------|------------------------------|





E E E S S E E E E Q E S E S S S S S S S

--(6)--6--6------------------|--6----6--6-6--6-6-6-6-6-6-6-|

---7---7--7--x-x-6--6--6-----|--7----7--7-6--7-7-7-7-6-6-6-|

---6---6--6--x-x-6--6--6-----|--8----8--8-8--8-8-8-8-8-8-8-|

---4---4--4--x-x-6--6--6-----|--8----8--8-8--8-8-8-8-8-8-8-|

-------------x-x-4--4--4-----|--6----6--6-6--6-6-6-6-6-6-6-|

-----------------------------|-----------------------------|





E E E S S E E E E Q E S E S S S S S S S

--(6)--6--6------------------|--6----6--6-6--6-6-6-6-6-6-6-|

---7---7--7--x-x-6--6--6-----|--7----7--7-6--7-7-7-7-6-6-6-|

---6---6--6--x-x-6--6--6-----|--8----8--8-8--8-8-8-8-8-8-8-|

---4---4--4--x-x-6--6--6-----|--8----8--8-8--8-8-8-8-8-8-8-|

-------------x-x-4--4--4-----|--6----6--6-6--6-6-6-6-6-6-6-|

-----------------------------|-----------------------------|





E E E S S E E E E Q E S E S S S S S S S

--(6)--6--6------------------|--6----6--6-6--6-6-6-6-6-6-6-|

---7---7--7--x-x-6--6--6-----|--7----7--7-6--7-7-7-7-6-6-6-|

---6---6--6--x-x-6--6--6-----|--8----8--8-8--8-8-8-8-8-8-8-|

---4---4--4--x-x-6--6--6-----|--8----8--8-8--8-8-8-8-8-8-8-|

-------------x-x-4--4--4-----|--6----6--6-6--6-6-6-6-6-6-6-|

-----------------------------|-----------------------------|





E E E S S E E E E Q E. S S S E Q

--(6)--6--6------------------|--6----6---6-6-6-6--6----|

---7---7--7--x-x-6--6--6-----|--6----6---6-6-6-6--6----|

---6---6--6--x-x-6--6--6-----|--8----8---8-8-8-8--8----|

---4---4--4--x-x-6--6--6-----|--8----8---8-8-8-8--8----|

-------------x-x-4--4--4-----|--6----6---6---6----6----|

-----------------------------|-------------------------|





E E S S E E E S S E E E S S E E E S S E

------------------------------------|-----------------------------6------|

------------------------------------|------------6-----------------------|

------------6----------------6------|-----8----------------6-------------|

-----8----------------6-------------|-------------------4-----(4)---(4)--|

-------------------4-----(4)---(4)--|--6-----(6)---(6)-------------------|

--6-----(6)---(6)-------------------|------------------------------------|





E E S S E E E S S E E E S S E E E S S E

------------------------------------|-----------------------------6------|

------------------------------------|------------6-----------------------|

------------6----------------6------|-----8----------------6-------------|

-----8----------------6-------------|-------------------4-----(4)---(4)--|

-------------------4-----(4)---(4)--|--6-----(6)---(6)-------------------|

--6-----(6)---(6)-------------------|------------------------------------|





VOZ

E E S S E E E S S E E E S S E E E S S E

-------------------------------------|-----------------------------6------|

-------------------------------------|------------6-----------------------|

-------------6----------------6------|-----8----------------6-------------|

------8----------------6-------------|-------------------4-----(4)---(4)--|

--------------------4-----(4)---(4)--|--6-----(6)---(6)-------------------|

--6------(6)---(6)-------------------|------------------------------------|





E E S S E E E S S E E E S S E E E S S E

------------------------------------|-----------------------------6------|

------------------------------------|------------6-----------------------|

------------6----------------6------|-----8----------------6-------------|

-----8----------------6-------------|-------------------4-----(4)---(4)--|

-------------------4-----(4)---(4)--|--6-----(6)---(6)-------------------|

--6-----(6)---(6)-------------------|------------------------------------|





E E S S E E E S S E E E S S E E E S S E

-----8S--(6)-6-L-------------------|------------------------------------|

---------------L-----9------6------|------------------------------------|

-----------------------------------|-----8------6-----------------------|

-----------------------------------|----------------------8------6------|

-----------------------------------|--6-----(6)---(6)--9-----(9)---(9)--|

--6------(6)------9-----(9)---(9)--|------------------------------------|





E E S S E E E S S E Q E. S S S E E. S

-----8S--(6)-6-L-------------------|--6----6---6-6-6-6--6---6-|

---------------L-----9------6------|--6----6---6-6-6-6--6---6-|

-----------------------------------|--8----8---8-8-8-8--8---8-|

-----------------------------------|--8----8---8-8-8-8--8---8-|

-----------------------------------|--6----6---6---6----6---6-|

--6------(6)------9-----(9)---(9)--|--------------------------|





E E E S E S S S S S S S E E E S S E E E E

--6--6--6--6-6--6-6-6-6-6-6-6-|--(6)--6--6------------------|

--6--6--6--6-6--6-6-6-6-6-6-6-|---7---7--7--x-x-6--6--6-----|

--8--8--8--8-8--8-8-8-8-8-8-8-|---6---6--6--x-x-6--6--6-----|

--8--8--8--8-8--8-8-8-8-8-8-8-|---4---4--4--x-x-6--6--6-----|

-----6--6--6-6--6-6-6-6-6-6-6-|-------------x-x-4--4--4-----|

------------------------------|-----------------------------|





Q E S E S S S S S S S E E E S S E E E E

--6----6--6-6--6-6-6-6-6-6-6-|--6--6--6------------------|

--7----7--7-6--7-7-7-7-6-6-6-|--7--7--7--x-x-6--6--6-----|

--8----8--8-8--8-8-8-8-8-8-8-|--6--6--6--x-x-6--6--6-----|

--8----8--8-8--8-8-8-8-8-8-8-|--4--4--4--x-x-6--6--6-----|

--6----6--6-6--6-6-6-6-6-6-6-|-----------x-x-4--4--4-----|

-----------------------------|---------------------------|





Q E S E S S S S S S S E E E S S E E E E

--6----6--6-6--6-6-6-6-6-6-6-|--6--6--6------------------|

--7----7--7-6--7-7-7-7-6-6-6-|--7--7--7--x-x-6--6--6-----|

--8----8--8-8--8-8-8-8-8-8-8-|--6--6--6--x-x-6--6--6-----|

--8----8--8-8--8-8-8-8-8-8-8-|--4--4--4--x-x-6--6--6-----|

--6----6--6-6--6-6-6-6-6-6-6-|-----------x-x-4--4--4-----|

-----------------------------|---------------------------|





Q E S E S S S S S S S E E E S S E E E E

--6----6--6-6--6-6-6-6-6-6-6-|--6--6--6------------------|

--7----7--7-6--7-7-7-7-6-6-6-|--7--7--7--x-x-6--6--6-----|

--8----8--8-8--8-8-8-8-8-8-8-|--6--6--6--x-x-6--6--6-----|

--8----8--8-8--8-8-8-8-8-8-8-|--4--4--4--x-x-6--6--6-----|

--6----6--6-6--6-6-6-6-6-6-6-|-----------x-x-4--4--4-----|

-----------------------------|---------------------------|





Q E. S S S E E S S E S E S S E S S E S E

---------------------------|-----------------------------|

--6----6---6-6-6-6--6--6-6-|--6--6-6--6-6-6--6-6-6--6-6--|

--8----8---8-8-8-8--8--8-8-|--8--8-8--8-8-8--8-8-8--8-8--|

--8----8---8-8-8-8--8--8-8-|--8--8-8--8-8-8--8-8-8--8-8--|

--6----6---6---6----6--6-6-|--6--6-6--6-6-6--6-6-6--6-6--|

---------------------------|-----------------------------|





E E S S E E E S S E E E S S E E E S S E

------------------------------------|-----------------------------6------|

------------------------------------|------------6-----------------------|

------------6----------------6------|-----8----------------6-------------|

-----8----------------6-------------|-------------------4-----(4)---(4)--|

-------------------4-----(4)---(4)--|--6-----(6)---(6)-------------------|

--6-----(6)---(6)-------------------|------------------------------------|





E E S S E E E S S E E E S S E E E S S E

------------------------------------|-----------------------------6------|

------------------------------------|------------6-----------------------|

------------6----------------6------|-----8----------------6-------------|

-----8----------------6-------------|-------------------4-----(4)---(4)--|

-------------------4-----(4)---(4)--|--6-----(6)---(6)-------------------|

--6-----(6)---(6)-------------------|------------------------------------|





E E S S E E E S S E E E S S E E E S S E

-----8S--(6)-6-L-------------------|------------------------------------|

---------------L-----9------6------|------------------------------------|

-----------------------------------|-----8------6-----------------------|

-----------------------------------|----------------------8------6------|

-----------------------------------|--6-----(6)---(6)--9-----(9)---(9)--|

--6------(6)------9-----(9)---(9)--|------------------------------------|





E E S S E E E S S E E E S S E E E S S E

-----8S--(6)-6-L-------------------|------------------------------------|

---------------L-----9------6------|------------------------------------|

-----------------------------------|-----8------6----------------6------|

-----------------------------------|----------------------8-------------|

-----------------------------------|--6-----(6)---(6)--9-----(9)---(9)--|

--6------(6)------9-----(9)---(9)--|------------------------------------|





E E. S E E S E S E E E. S E E S E S E

---------------------------|----------
Get this song at amazon.com      Ebay     Ringtones Ringtones  


Learn to play: Songwriting, Piano, Harmonica, Guitar
More Red Hot Chili Peppers lyrics available at Muzikum

Related Red Hot Chili Peppers Tabs

Rolling Sly Stone Live tabs
Skinny Sweaty Man Bass tabs
Subway To Venus Solo tabs
Dani tabs
Intro tabs
Midnight Bass tabs
Even You Brutus? tabs
Especialy In Michigan tabs
Lovin And Touchin tabs
Baby Appeal (3) tabs
Mellowship Slinky tabs
By The Way Live Solo tabs
Californication (live) (2) tabs
On Mercury tabs
Bicycle Song Bass tabs
Walkin On Down The Road tabs
What Is Soul Intro tabs
Dani California - 100% Complete tabs
Tell Me Baby Perfect tabs
Emit Remmus tabs


Guitar Tabs









All tabs are property and copyright of their owners. All tabs provided for educational purposes only. Privacy Policy, DMCA

Online converter - videoconverter.com