Red Hot Chili Peppers

Stadium Arcadium - Jupiter Bass Tabs



More from Red Hot Chili Peppers

Red Hot Chili Peppers Tabs
Red Hot Chili Peppers Chords
Red Hot Chili Peppers Bass
Red Hot Chili Peppers Lyrics



Artist: Red Hot Chili Peppers

Album: Stadium Arcadium -> Jupiter CD

Bassist: Flea



Tabbed By: Marcos Prieto (webmaster at tabs-database.com.com)



It was so hard make this tab, by finally I finished it and... here

is!



It has been possible thanks to the aid of a pluggin that slow down

the song but keep the pitch, what help me to listen better each note.

I too use this tool for play some songs, i'm not Flea, sometimes he

plays very fast ;)



The chords over the tab are only a reference, for example, if the

guitar plays C7b9 I put 'C', anyway its all you need to know about the

chord, major or minor.



I dedicate this tab to all the bass and guitar players who make an

great effort creating good tabs.



If you see any mistake please tell me, send a message or e-mail.



Enjoy!





Notation legend:



\ | /

3 -> triplet, 3 notes in 2 beats.

x -> mute.

\ -> slide up. \ It can be after or before the note, like 1h3,

/ -> slide down. | but if there's no enought space it can be

h -> hammer on. | over or down, like G|-13-...

p -> pull off. / D|--h-...

~ -> let ring.

S -> slap.

P -> pop.

+ + -> the rhythm of the song, generally 4x4. If there are 2 digits notes

or there's no enough space, I lengthen it,

from (+ + ) to (+ + )

|------| -> repeat this a number of times, for example |3-3-3-3| x4

repeats 3-3-3-3 four times.





STADIUM ARCADIUM -Jupiter CD-:



1. Dani California

2. Snow ((Hey Oh))

3. Charlie

4. Stadium Arcadium

5. Hump De Bump

6. She's Only 18

7. Slow Cheetah

8. Torture Me

9. Strip My Mind

10. Especially In Michigan

11. Warlocks

12. C'mon Girl

13. Wet Sand

14. Hey





**********************************************************************

- - - - - +--------------------+ - - - - - -

/ \ / \ / \ / \ / \ / +| 1. DANI CALIFORNIA |+ \ / \ / \ / \ / \ / \

- - - - - - +--------------------+ - - - - -

**********************************************************************



Intro:



Am G Dm Am Am G Dm Am

+ + + + + + + + + + + + + + + +

G|----------------|----7-----------|----------------|----7-----------|

D|----7-------5-3-|------x/7-5-----|----7-------5-3-|---------h-h-h--|

A|----------------|5-5---------7-5-|----------------|5-5----0030507--|

E|5-5----53-3-----|----------------|5-5----53-3-----|---------------8|



Verse 1:



Am G Dm Am Am G Dm Am

+ + + + + + + + + + + + + + + +

G|----------------|----7-----------|----------------|----7-----------|

D|----7-------5-3-|------x/7-5-----|----7-------5-3-|----------5-----|

A|----------------|5-5---------7-5-|----------------|5-5----/7---75--|

E|5-5----53-3-----|----------------|5-5----53-3-----|--------------8-|



Am G Dm Am Am G Dm Am

+ + + + + + + + + + + + + + + +

G|----------------|----7-----5-----|----------------|----7-----------|

D|----7-------5-3-|------x/7-----5-|----7-------5-3-|-------/7-5-----|

A|----------------|5-5---------57--|----------------|5-5---------7-5-|

E|5-5----53-3-----|----------------|5-5----53-3-----|----------------|



Am G Dm Am Am G Dm Am

+ + + + + + + + + + + + + + + +

G|----------------|----7-----------|----------------|----7-----------|

D|----7-------5-3-|------x/7-5-----|----7-------5-3-|-------/7-5---5-|

A|----------------|5-5---------7-5-|----------------|5-5---------57-7|

E|5-5----53-3-----|----------------|5-5----53-3-----|----------------|



Am G Dm Am Am G Dm

+ + + + + + + + + + + + + + + + + + + +

G|----------------|----7-----------|----------------|----------------|----------------|

D|----7-------5-3-|------x/7-5-----|----7-------5-x3|----------------|----------------|

A|----------------|5-5---------7-5-|----------------|5---5--5555-5--5|555-5--55~------|

E|5-5-----3-3-----|----------------|5-5-----3-3-----|----------------|----------------|



Chorus 1:



F C Dm G

+ + + + + + + +

G|----------------|----------------|

D|----------------|----------------|

A|---------03---30|3/555-----------|

E|1-1-1-----------|----------53----| x3



F C Dm

+ + + + + + + + + + + +

G|----------------|----------------|----------------|

D|----------------|----------------|----------------|

A|---------03---30|3/555---5-55----|5-55----5-55----|

E|1-1-1-----------|----------------|----------------|



Verse 2:



Am G Dm Am Am G Dm Am

+ + + + + + + + + + + + + + + +

G|----------------|----7-----------|----------------|----7-----------|

D|----7-------553-|------x/7-5-----|----7-------553-|----------------|

A|----------------|5-5---------7-5-|----------------|5-5-----0305075-|

E|5-5-----3-3-----|----------------|5-5-----3-3-----|---------------8|



Am G Dm Am Am G Dm Am

+ + + + + + + + + + + + + + + +

G|----------------|----7-----------|----------------|----7-----------|

D|----7-------5-3-|------x/7-5-----|----7-------5-3-|----------5-----|

A|----------------|5-5---------7-5-|----------------|5-5---5/7---5---|

E|5-5----53-3-----|----------------|5-5----53-3-----|--------------8-|



Am G Dm Am Am G Dm

+ + + + + + + + + + + + + + + + + + + +

G|----------------|----7-----------|----------------|----------------|----------------|

D|----7-------5-3-|------x/7-5-----|----7-------5-53|----------------|----------------|

A|----------------|5-5---------7-5-|----------------|5---5--5555-5--5|555-5--55~------|

E|5-5----53-3-----|----------------|5-5-----3-3-----|----------------|----------------|



Chorus 2:



F C Dm G

+ + + + + + + +

G|----------------|----------------|

D|----------------|----------------|

A|---------03---30|3/555-----------|

E|1-1-1-----------|----------53----| x3



F C Dm

+ + + + + + + + + + + +

G|----------------|----------------|----------------|

D|----------------|----------------|----------------|

A|---------03---30|3/555---5-55----|5-55----5-555-5-|

E|1-1-1-----------|----------------|----------------|



Bridge:



Bm G F#m Bm G F#m

+ + + + + + + + + + + + + + + +

G|----4---4-4-----|----------------|----4-4---4-----|----------------|

D|-----4---4--424-|5-505--04-402---|-----4-4-4--424-|5-505--044402---|

A|2-2----2--------|-------------4--|2-2-----2-------|-------------4--|

E|----------------|----------------|----------------|----------------|



Bm G F#m Bm Bm

+ + + + + + + + + + + + + + + +

G|----4-4---4-----|----------------|----4-4---4-----|----------------|

D|-----4-4-4--424-|5-505--04-402---|-----4-4-4------|------------2---|

A|2-2-----2-------|-------------4--|2-2-----2-------|2-2-----2-5-----|

E|----------------|----------------|----------------|--------------5-|



Verse 3:



Am G Dm Am Am G Dm Am

+ + + + + + + + + + + + + + + +

G|----------------|----7-----------|----------------|----7---5-7-5---|

D|----7-------5-3-|-------/7-5-----|----7-------5-3-|------57-----757|

A|----------------|5-5---------7-5-|----------------|5-5-------------|

E|5-5----53-3-----|----------------|5-5----53-3-----|----------------|



Am G Dm Am Am G

+ + + + + + + + + + + +

G|----------------|----7-----------|----------------|

D|----7-------5-3-|-------/7-5--5--|----7---------53|

A|----------------|5-5---------7-5-|----------------|

E|5-5----53-3-----|----------------|5-5----53-3-----|



Dm Em Em

+ + + + + + + + + + + + + + + +

G|----------------|----------------|9-9-9--99-9-9-9-|----------------|

D|----------------|----------------|----------------|----------------|

A|5---5--55-5-5--5|555-5--5555-5-x-|----------------|----------------|

E|----------------|----------------|----------------|0-0-0-0-0-------|



Chorus 3:



F C Dm G

+ + + + + + + +

G|----------------|----------------|

D|----------------|----------------|

A|---------03---30|3/555-----------|

E|1-1-1-----------|----------53----| x3



F C Dm

+ + + + + + + + + + + +

G|----------------|----------------|----------------|

D|----------------|----------------|----------------|

A|---------03---30|3/555---5-55----|5-55----5-55----|

E|1-1-1-----------|----------------|----------------|



F C Dm G

+ + + + + + + +

G|----------------|----------------|

D|----------------|----------------|

A|---------03---30|3/555-----------|

E|1-1-1-----------|----------53----| x3



F C Dm

+ + + + + + + + + + + +

G|----------------|----------------|----------------|

D|----------------|----------------|---------7-5----|

A|---------03---30|3/555---5-55----|5-55----5----75-|

E|1-1-1-----------|----------------|---------------8|



Ending/Solo:



F C Dm G F C Dm G

+ + + + + + + + + + + + + + + +

G|----------------|----------------|----------------|----------------|

D|----------------|----------------|----------------|----------------|

A|---------03-3-3-|3/555-----------|---------03-3-3-|3/555585--------|

E|1-1---1---------|--------3-3-3-3-|1-1---1---------|---------3333---|



F C Dm G F C Dm

+ + + + + + + + + + + + + + + + + + + +

G|----------------|----------------|----------------|----------------|-------575-75---|

D|----------------|----------------|----------------|----------------|-----57---7--7--|

A|---------03-3-3-|3/555-----------|---------03-3-3-|3/555---5-55----|5-55----------8-|

E|1-1---1---------|--------3-3-3-3-|1-1---1---------|----------------|----------------|



F C Dm G F C Dm G

+ + + + + + + + + + + + + + + +

G|----------------|----------------|----------------|----------------|

D|----------------|----------------|----------------|----------------|

A|---------03-3-3-|3/555-55--------|---------03-3-3-|3/555555--------|

E|1-1---x1--------|----------333---|1-1---x1--------|---------3333---|

P



F C Dm G F

+ + + + + + + + + + + + + + + +

G|----------------|----------------|----------------|----------------|

D|----------------|--------7-5-----|----------------|----------------|

A|---------03-3-3-|3/55-585----85--|----------------|----------0-1-2-|

E|1-1-1-x1--------|--------------8-|1-1-1-1-1-1-1-1-|1-1-1-1-1-------|



C Dm

+ + + + + + + + + + + + + + + +

G|----------------|2--3--4--5--5---|----------------|----------------|

D|----2--3--4--5--|----------------|----------------|----------------|

A|3-3--3--3--3--3-|-3--3--3--------|5~--------------|----------------|

E|----------------|----------------|----------------|----------------|





NOTE:



You can play the chorus like this



A) B)

+ + + + + + + +

G|----------------|----------------| G|----------------|----------------|

D|---------*------|----------------| D|---------*------|----------------|

A|---------03---30|3/555-----*-----| or A|---------x3---30|3/555-----*-----|

E|1-1-1-----------|----------53----| E|1-1-1-----------|----------x3----|

^

|

\_ _ very quickly







**********************************************************************

- - - - - +--------------------+ - - - - - -

/ \ / \ / \ / \ / \ / +| 2. SNOW ((HEY OH)) |+ \ / \ / \ / \ / \ / \

- - - - - - +--------------------+ - - - - -

**********************************************************************



I recommend to use a pick in the chorus.



Verse 1 (0:10):



G#m B G#m B

+ + + + + + + + + + + + + + + +

G|----------------|----------------|----------------|----------------|

D|----------------|----------------|----------------|----------------|

A|------467-------|------679-------|------467-------|------679-------|

E|4---------------|7---------------|4---------------|7-----------7---|



G#m B G#m B

+ + + + + + + + + + + + + + + +

G|----------------|----------------|----------------|----------------|

D|----------------|----------------|----------------|------------6\4-|

A|------467-------|------679-------|------467-------|------679-------|

E|4---------------|7---------------|4---------------|7---------------|



G#m B G#m B

+ + + + + + + + + + + + + + + +

G|----------------|----------------|----------------|----------------|

D|----------------|----------------|----------------|----------------|

A|------467-------|------679-------|------467-------|------679-------|

E|4---------------|7---------------|4---------------|7-----------7-6-|



G#m B G#m B

+ + + + + + + + + + + + + + + +

G||----------------|----------------|----------------|----------------||

D|----------------|----------------|----------------|----------------|

A|----4-6-7---6-4-|----6-7-9-------|----4-6-7---6-4-|----------------|

E||4---------------|7-----------7-6-|4---------------|7---6-4-2---2---|| x2



G#m B G#m B

+ + + + + + + + + + + + + + + +

G|----------------|----------------|----------------|----------------|

D|----------------|----------------|----------------|----------------|

A|------467-------|------679-------|------467-------|------679-------|

E|4---------------|7---------------|4---------------|7-----------x6--|



G#m B G#m B

+ + + + + + + + + + + + + + + +

G|----------------|----------------|----------------|----------------|

D|----------------|----------------|----------------|----------------|

A|------467-------|------679-------|------467-------|------679--/11\-|

E|4---------------|7---------------|4---------------|7---------------|



G#m B G#m B

+ + + + + + + + + + + + + + + +

G|----------------|----------------|----------------|----------------|

D|----------------|----------------|----------------|----------------|

A|----4-6-7---6-4-|----6-7-9-------|----4-6-7---6-4-|----------------|

E|4---------------|7-----------7-6-|4---------------|7---6-4-2--x2-2-|



G#m B G#m B

+ + + + + + + + + + + + + + + +

G|----------------|----------------|----------------|----------------|

D|----------------|----------------|----------------|----------------|

A|----4-6-7---6-4-|----6-7-9-------|----4-6-7---6-4-|----------------|

E|4---------------|7-----------7-6-|4---------------|7---6-4-2---2---|



PRECHORUS:



E G#m

+ + + + + + + + + + + + + + + +

G|----------------|----------------|----------------|----------------|

D|----------------|----------------|----6-------6---|----6-----------|

A|----7-------7---|----7-------9---|----------------|------------9---|

E|----------------|----------------|----------------|----------------|



E

+ + + + + + + +

G|----------------|----------------|

D|----------------|----------------|

A|----7-------7---|----7--77777777-|

E|----------------|----------------|



CHORUS x4 (with End 1, 1, 2, 3):



B F#m

+ + + + + + + +

G||11--11--11--x---1111111111--x---|6---6---6---x---6-6-6-6-6---x---|

D|.9---9---9---x---9-9-9-9-9---x---|4---4---4---x---4-4-4-4-4---x---|

A|.--------------------------------|--------------------------------|

E||--------------------------------|--------------------------------|



____________ End 1 ____________

C#m \

+ + + + + + + +

G|13--13--13--x---1313131313--x---|13--13--13--x---13131313131313x-||

D|11--11--11--x---1111111111--x---|11--11--11--x---11111111111111x-.|

A|--------------------------------|--------------------------------.|

E|--------------------------------|--------------------------------||



___________ End 2 _____________ ___________ End 3 _____________

\ \

+ + + + + + + +

G|1313131313--x---1313--13131313--| G|1313131313--x---1313--1313131313|

D|1111111111--x---1111--11111111--| D|1111111111--x---1111--1111111111|

A|--------------------------------| A|--------------------------------|

E|--------------------------------| E|--------------------------------|



___________ End 4 _____________ ___________ End 5 _____________

\ \

+ + + + + + + +

G|13--13--13--x---1313--13131313--| G|13--13--13--x---1313131313------|

D|11--11--11--x---1111--11111111--| D|11--11--11--x---1111111111------|

A|--------------------------------| A|--------------------------------|

E|--------------------------------| E|--------------------------------|



VERSO 3:



G#m B G#m B

+ + + + + + + + + + + + + + + +

G|----------------|----------------|----------------|----------------|

D|----------------|----------------|----------------|----------------|

A|------467-------|------679-------|------467-------|------679-------|

E|4---------------|7---------------|4---------------|7-----------7---|



G#m B G#m B

+ + + + + + + + + + + + + + + +

G|----------------|----------------|----------------|----------------|

D|----------------|----------------|----------------|-----------x6-6-|

A|------467-------|------679-------|------467-------|------679-------|

E|4---------------|7---------------|4---------------|7---------------|



G#m B G#m B

+ + + + + + + + + + + + + + + +

G|----------------|----------------|----------------|----------------|

D|----------------|----------------|----------------|----------------|

A|------467-------|------679-------|------467-------|------679-------|

E|4---------------|7---------------|4---------------|7-----------764-|



G#m B G#m B

+ + + + + + + + + + + + + + + +

G|----------------|----------------|----------------|----------------|

D|----------------|----------------|----------------|----------------|

A|----4-6-7---6-4-|----6-7-9-------|----4-6-7---6-4-|----------------|

E|4---------------|7-----------7-6-|4---------------|7---6-4-2--x2-2-|



G#m B G#m B

+ + + + + + + + + + + + + + + +

G|----------------|----------------|----------------|----------------|

D|----------------|----------------|----------------|----------------|

A|----4-6-7---6-4-|----6-7-9-------|----4-6-7---6-4-|----------------|

E|4---------------|7-----------7-6-|4---------------|7---6-4-2---2---|



PRECHORUS:



E G#m

+ + + + + + + + + + + + + + + +

G|----------------|----------------|----------------|----------------|

D|----------------|----------------|----6-------6---|----6-----------|

A|----7-------7---|----7-------9---|----------------|------------9---|

E|----------------|----------------|----------------|----------------|



E

+ + + + + + + +

G|----------------|----------------|

D|----------------|----------------|

A|----7-------7---|----7-------7---|

E|----------------|----------------|



CHORUS -> until the end of the song, alternating the Ends, and finishing with:



B F#m

+ + + + + + + +

G|11--11--11--x---1111111111--x---|6---6---6---x---6-6-6-6-6---x---|

D|9---9---9---x---9-9-9-9-9---x---|4---4---4---x---4-4-4-4-4---x---|

A|--------------------------------|--------------------------------|

E|--------------------------------|--------------------------------|



C#m

+ + + +

G|----------------|

D|----------------|

A|4~--------------|

E|----------------|







**************************************************************

- - - - - +------------+ - - - - - -

/ \ / \ / \ / \ / \ / +| 3. CHARLIE |+ \ / \ / \ / \ / \ / \

- - - - - - +------------+ - - - - -

**************************************************************



Intro:



+ + + +

G||----------3-||

D|.----3---2---.|

A|.--2---1-----.|

E||1-----------|| x2

\ | / \ | /

3 3



Verse_1 x5 (with V. End 1, 2, 1, 1, 1):

____V. End 1___

\

Gm

+ + + + + + + + + + + + + + + +

G||----------------|----------------|----------------|----------------||

D|----------------|----------------|----------------|----------------|

A|------------1-0-|--------1---310-|------------1-0-|--------103-4-5-|

E||3-xx1-xx3-x-----|xx1-3-xx-x-3----|3-xx1-xx3-x-----|xx1-3--3--------||



____V. End 2___ ____V. End 3___ ____V. End 4___

\ \ \

+ + + + + + + + + + + +

G|----------------| |----------------| |----------------|

D|----------------| |-------0503-----| |----------------|

A|--------103--01-| |-------------x1-| |--------103--03-|

E|xx1-3--3--------| |xx1-3-----------| |xx1-3--3--------|



____V. End 5___

\

+ + + +

G|----------------|

D|--------3-------|

A|-------5-53-1-0-|

E|xx1-3-x---------|



Pre-Chorus:



Cm Bb F Eb

+ + + + + + + +

G||--------8---------------7--------|--------14--------------12-------||

D|---------------------------------|---------------------------------|

A|---------------------------------|---------------------------------|

E||8---------------6---6--------/---|13----------\---11--11-------10--|| x3



Cm Bb F Eb

+ + + + + + + +

G|--------8---------------7--------|--------14--------------14-------|

D|---------------------------------|---------------------------------|

A|---------------------------------|---------------------------------|

E|8---------------6---6--------/---|13--------------13--13-------\---|



D

+ + + +

G|--------11--------------11-------|

D|---------------------------------|

A|---------------------------------|

E|10--10------10--10--10------10\--|



Verse_2 (with V. End 1, 1, 3, 1, 4):



Pre-Chorus.



Chorus 1:



D# Fm

+ + + + + + + +

G||--------------------------------|--------------------------------|

D|.--------------------------8-----|-h------------------------10----|

A|.6---6-6-6---6-6---------6-------|68--8-8-8---8-8---------8-------|

E||------------------6-6h8---------|------------------6-6h8---------|



Gm

+ + + + + + + +

G|--------------------------------|--------------------------------||

D|-/------------------------12----|--------------------------------.|

A|810-101010--1010--10101010------|10--101010--1010--101010108-----.|

E|--------------------------------|--------------------------------|| x2



D# Fm

+ + + + + + + +

G|--------------------------------|--------------------------------|

D|--------------------------8-----|--------------------------------|

A|6---6-6-6---6-6---------6-------|6h8-8-8-8---8-8---8---8-8-------|

E|------------------6-6h8---------|------------------------------1-|



Verse_3 x4 (with V. End 5, 2, 1, 1).



Pre-Chorus.



Chorus 2:



D# Fm

+ + + + + + + +

G|--------------------------------|--------------------------------|

D|--------------------------8-----|-h------------------------10----|

A|6---6-6-6---6-6---------6-------|68--8-8-8---8-8---------8-------|

E|------------------6-6h8---------|------------------6-6h8---------|



Gm

+ + + + + + + +

G|--------------------------------|--------------------------------|

D|-/------------------------12----|--------------------------------|

A|810-101010--1010--10101010------|10--101010--1010--101010108-----|

E|--------------------------------|--------------------------------|



D# Fm

+ + + + + + + +

G|--------------------------------|--------------------------------|

D|--------------------------8-----|-h------------------------10----|

A|6---6-6-6---6-6---------6-------|68--8-8-8---8-8---------8-------|

E|------------------6-6h8---------|------------------6-6h8---------|



Gm

+ + + + + + + +

G|--------------------------------|--------------------------------|

D|-/------------------------------|--------------------8-----------|

A|810-101010--1010--101010108-----|10--101010--108---10----108-----|

E|--------------------------------|--------------------------------|



D# Fm

+ + + + + + + +

G|--------------------------------|--------------------------------|

D|--------------------------8-----|-h------------------------10----|

A|6---6-6-6---6-6---------6-------|68--8-8-8---8-8---------8-------|

E|------------------6-6h8---------|--------------------6h8---------|



Gm

+ + + + + + + +

G|--------------------------------|--------------------------------|

D|-/------------------------12----|1210------10--------1210-----/12|

A|810-101010--1010--10101010------|------13------13--------13108---|

E|--------------------------------|--------------------------------|



D# Fm

+ + + + + + + +

G|--------------------------------|--------------------------------|

D|--------------------------8-----|-h------------------------10----|

A|6---6-6-6---6-6---------6-------|68--8-8-8---8-8---------8-------|

E|------------------6-6h8---------|------------------6-6h8---------|



Gm

+ + + + + + + +

G|--------------------------------|------12--12-10-8---------------|

D|-/------------------------12----|--------------------108-8-------|

A|810-101010--1010--10101010------|10--10----------------p---10----|

E|--------------------------------|--------------------------------|

P P P P P P



D# Fm

+ + + + + + + +

G|--------------------------------|--------------------------------|

D|--------------------------8-----|-h------------------------10----|

A|6---6-6-6---6-6---------6-------|68--8-8-8---8-8---------8-------|

E|------------------6-6h8---------|--------------------6h8---------|



Gm

+ + + + + + + +

G|--------------------------------|--------------------------------|

D|-/------------------------12----|--------1210------1210--10------|

A|810-101010--1010--10101010------|10--1010------13------10--8-----|

E|--------------------------------|--------------------------------|



D# Fm

+ + + + + + + +

G|--------------------------------|--------------------------------|

D|--------------------------8-----|-h------------------------10----|

A|6---6-6-6---6-6---------6-------|68--8-8-8---8-8---------8-------|

E|------------------6-6h8---------|------------------6-6h8---------|



Gm

+ + + + + + + +

G|--------------------------------|-h------------------------------|

D|-/------------------------12----|810-108----810--10--8-----------|

A|810-101010--1010--10101010------|------------------------108-----|

E|--------------------------------|--------------------------------|



D# Fm

+ + + + + + + +

G|--------------------------------|--------------------------------|

D|--------------------------------|-h------------------------------|

A|6---6-6-6---6-6---6-6-------6---|68--8-8-8---8-8---------6---8---|

E|------------------------6h8-----|------------------6-6h8---------|



Gm

+ + + + + + + +

G|--------------------------------|--h-10--12----10----------------|

D|-/------------------------12---8|1012--12----12----1210--108-----|

A|810-101010--1010--108h1010------|--------------------------------|

E|--------------------------------|--------------------------------|



D# Fm

+ + + + + + + +

G|--------------------------------|--------------------------------|

D|--------------------------------|-h------------------------------|

A|6---6-6-6---6-6---------6---6-6-|68--8-8-8---8-8----8-8--8-------|

E|------------------6-6h8---------|----------------------------8---|



Gm

+ + + + + + + +

G|--------------------------------|--------------------------------|

D|--------------------------------|--------------------------------|

A|--------------------------------|--------------------------------|

E|3~------------------------------|--------------------------------|





***********************************************************************

- - - - - +---------------------+ - - - - - -

/ \ / \ / \ / \ / \ / +| 4. STADIUM ARCADIUM |+ \ / \ / \ / \ / \ / \

- - - - - - +---------------------+ - - - - -

***********************************************************************



Verse 1:



(0:17)



F#m A

+ + + + + + + + + + + + + + + +

G||----------------|----------------|----------------|----------------|

D|----------------|----------------|----------------|----------------|

A|----------------|----------------|----------------|----------------|

E||2~--------------|----------------|5~--------------|----------------|



F#m A E

+ + + + + + + + + + + + + + + +

G|----------------|----------------|----------------|----------------||

D|----------------|----------------|----------------|----------------|

A|----------------|----------------|----------------|----------------|

E|2~--------------|----------------|5~--------------|0~--------------|| x2



F#m A

+ + + + + + + + + + + + + + + +

G|----------------|----------------|----------------|----------------|

D|----------------|----------------|----------------|----------------|

A|----------------|----------------|----------------|----------------|

E|2~--------------|----------------|5~--------------|----------------|



F#m A E

+ + + + + + + + + + + + + + + +

G|----------------|----------------|----------------|----------------|

D|----------------|----------------|----------------|----------------|

A|----------------|----------------|----------------|----------------|

E|2~--------------|----------------|5~--------------|0~--------------|



Chorus 1:



Bm D

+ + + + + + + + + + + + + + + +

G|----------------|----------------|----------------|----------------|

D|----------------|----------------|----------------|----------------|

A|2--22-2--22-2---|2--22-2--22-4---|5--55-5--55-5-5-|5--55-5---5-4---|

E|----------------|----------------|----------------|----------------|



A E

+ + + + + + + + + + + + + + + +

G|----------------|----------------|----------------|----------------|

D|----------------|----7-----------|----------------|----------------|

A|----------------|---7------7-----|------7-----7-7-|------7--77-7-5-|

E|5--55-5--55-5-7-|5-----------5---|0--00-----0-----|0--00-----------|



Bm D

+ + + + + + + + + + + + + + + +

G|----------------|4---------------|----------------|----------------|

D|---------------4|----------------|----------------|----------------|

A|2--22-2--22-2-2-|------2---2-4---|5-------5---5-5-|5--55-5---5-4-4-|

E|----------------|----------------|---5--2---------|----------------|



A E

+ + + + + + + + + + + + + + + +

G|----------------|----------------|----------------|----------------|

D|----------------|----------------|----------------|----------------|

A|----------------|----------------|----------------|7--77-7--77-7-7\|

E|5--55-5--55-5-7-|5--55-5---5-4---|0--00-0--00-0-0-|----------------|



Verse 2:



F#m A

+ + + + + + + + + + + + + + + +

G||----------------|----------------|----------------|----------------|

D|----------------|----------------|----------------|----------------|

A|----------------|----------------|----------------|----------------|

E||2~--------------|----------------|5~--------------|----------------|



F#m A E

+ + + + + + + + + + + + + + + +

G|----------------|----------------|----------------|----------------||

D|----------------|----------------|----------------|----------------|

A|----------------|----------------|----------------|----------------|

E|2~--------------|----------------|5~--------------|0~--------------|| x2



F#m A

+ + + + + + + + + + + + + + + +

G|----------------|----------------|----------------|----------------|

D|----------------|----------------|----------------|----------------|

A|----------------|----------------|----------------|----------------|

E|2~--------------|----------------|5~--------------|------------4---|



F#m A E

+ + + + + + + + + + + + + + + +

G|----------------|----------------|----------------|----------------|

D|----------------|----------------|----------------|----------------|

A|----------------|----------------|----------------|----------------|

E|2~--------------|----------------|5~--------------|0---0----00-0-0-|



Chorus 2:



Bm D

+ + + + + + + + + + + + + + + +

G|----------------|----------------|----------------|----------------|

D|----------------|----------------|----------------|----------------|

A|2--22-2--22-2---|2--22-2---2-4---|5-------5---5-5-|5--55-5---5-4---|

E|----------------|----------------|---5--2---------|----------------|



A E

+ + + + + + + + + + + + + + + +

G|----------------|----------------|----------------|----------------|

D|----------------|7---------------|----------------|----------------|

A|----------------|----------------|------7-----7-7-|----7---7-7-5-5-|

E|5---5-5---5-5-5-|------5---5-4---|0--00-----0-----|0--0------------|



Bm D

+ + + + + + + + + + + + + + + +

G|----------------|4---------------|----------------|----------------|

D|--------------4-|----------------|----------------|----------------|

A|2--22-2--22-2---|------2---2-4---|5--55-5--55-5-7-|5--55-5-5-5-4---|

E|----------------|----------------|----------------|----------------|



A E

+ + + + + + + + + + + + + + + +

G|----------------|----------------|----------------|----------------|

D|----------------|----------------|----------------|----------------|

A|----------------|----------------|------7--77-----|--7-7---7---7---|

E|5---5-5---5-5-5-|5---5-5---5-4-4-|0--00-------0-0-|0-----0---0---0-|



Bridge:



F#m G#m A Bm

+ + + + + + + +

G|--------------------------------|-----------------/--------------|

D|4-------4-4-4---6---6-6-6-6-6---|7-----7-7-7-7---911-11111111----|

A|--------------------------------|--------------------------------|

E|--------------------------------|--------------------------------|



F#m G#m A Bm

+ + + + + + + +

G|--------------------------------|-----------------/--------------|

D|4-------4-4-4---6-----6-6-6-6---|7---7-7-7-7-7---911-11111111----|

A|--------------------------------|--------------------------------|

E|--------------------------------|--------------------------------|



F#m G#m A Bm

+ + + + + + + +

G|--------------------------------|-----------------/--------------|

D|4---4-4-4-4-4---6---6-6-6-6-6---|7---7-7-7-7-7---911-1111111111--|

A|--------------------------------|--------------------------------|

E|--------------------------------|--------------------------------|



F#m G#m A Bm

+ + + + + + + +

G|--------------------------------|-----------------/--------------|

D|4---4-4-4-4-4---6---6-6-6-6-6---|7---7-7-7-7-7---911-1111111111--|

A|--------------------------------|--------------------------------|

E|--------------------------------|--------------------------------|



Bm C#m D E

+ + + + + + + +

G|4---4-4---4-4---6-----6-6-6-6---|7---7-7---7-7---911-1111--1111--|

D|--------------------------------|-----------------/--------------|

A|--------------------------------|--------------------------------|

E|--------------------------------|--------------------------------|



Bm C#m D E

+ + + + + + + +

G|4---4-4---4-4---6---6-6-6-6-6---|7---7-7---7-7---911-1111--1111--|

D|--------------------------------|-----------------/--------------|

A|--------------------------------|--------------------------------|

E|--------------------------------|--------------------------------|



F#m G#m A Bm

+ + + + + + + +

G|--------------------------------|-----------------/--------------|

D|4---4-4---4-4---6-----6-6-6-6---|7---7-7---7-7---911-1111111111--|

A|--------------------------------|--------------------------------|

E|--------------------------------|--------------------------------|



F#m G#m A Bm

+ + + + + + + +

G|--------------------------------|-----------------/--------------|

D|4---4-4-4-4-4---6---6-6-6-6-6---|7---7-7-7-7-7---911-1111111111--|

A|--------------------------------|--------------------------------|

E|--------------------------------|--------------------------------|



C# Bm F#m

+ + + + + + + + + + + + + + + +

G|----------------|6-66-6----6-5---|4-44-4---44-4---|----------------|

D|----------------|----------------|--------------4-|----------------|

A|4-44-4---44-4-4-|----------------|----------------|2-22-2----2-2-0-|

E|----------------|----------------|----------------|----------------|



Verse 3:



F#m A

+ + + + + + + + + + + + + + + +

G|----------------|----------------|----------------|----------------|

D|----------------|----------------|----------------|----------------|

A|----------------|----------------|----------------|----------------|

E|2~--------------|----------------|----------------|----------------|



F#m A E

+ + + + + + + + + + + + + + + +

G|----------------|----------------|----------------|----------------|

D|----------------|----------------|----------------|----------------|

A|----------------|----------------|----------------|----------------|

E|----------------|----------------|5~--------------|0~--------------|



F#m A

+ + + + + + + + + + + + + + + +

G|----------------|----------------|----------------|----------------|

D|----------------|----------------|----------------|----------------|

A|----------------|----------------|----------------|----------------|

E|2~--------------|----------------|5~--------------|----------------|



F#m A E

+ + + + + + + + + + + + + + + +

G|----------------|----------------|----------------|----------------|

D|----------------|----------------|----------------|----------------|

A|----------------|----------------|----------------|----------------|

E|2~--------------|----------------|5~--------------|0~--------------|



Chorus 3:



Bm D

+ + + + + + + + + + + + + + + +

G|----------------|----------------|----------------|----------------|

D|----------------|----------------|----------------|----------------|

A|2-----2--22-2-2-|2---2-2---2-4---|5---5-5--55-5-7-|5--55-5---5-4---|

E|----------------|----------------|----------------|----------------|



A E

+ + + + + + + + + + + + + + + +

G|----------------|----------------|----------------|----9-7---7-----|

D|----------------|----------------|----------------|--9-----9---9-0-|

A|----------------|----------------|----------7-7---|7---------------|

E|5--55-5--55-5-5-|5-55-5----5-4---|0--00-0-------0-|----------------|



Bm D

+ + + + + + + + + + + + + + + +

G|----------------|------4---------|----------------|----------------|

D|----------------|-----4----4-----|----------------|----------------|

A|2--22-2--22-2-2-|2-22--------2-4-|5-------5---5-5-|5---5-5---5-5-4-|

E|----------------|----------------|---5--2---------|----------------|



A E

+ + + + + + + + + + + + + + + +

G|----------------|----------------|----------------|----------------|

D|----------------|----------------|----------------|----------------|

A|----------------|----------------|------7---------|------7---7-7---|

E|5---5-5--55-5-7-|5---5-5--55-4-4-|0--00-----0-0---|0-0-0---------0-|



Bm D

+ + + + + + + + + + + + + + + +

G|----------------|----4-----------|----------------|----------------|

D|----------------|---4------------|----------------|----------------|

A|2--22-2--22-2-2-|2-2---2---2-2-4-|5-------5---5-5-|5--55-5--54-5-7-|

E|----------------|----------------|---5--2---------|----------------|



A E

+ + + + + + + + + + + + + + + +

G|----------------|----------------|----------------|----------------|

D|----------------|----------------|----------------|----------------|

A|----------------|----------------|------7--77-----|------7-7-7-7-7-|

E|5---5-5--55-5-7-|5---5-5--55-4-4-|0--00-------0-0-|0-0-0-----------|





*******************************************************************

- - - - - +-----------------+ - - - - - -

/ \ / \ / \ / \ / \ / +| 5. HUMP DE BUMP |+ \ / \ / \ / \ / \ / \

- - - - - - +-----------------+ - - - - -

*******************************************************************



Tuning: DADG



Intro:



G

+ + + + + + + +

G|----------------|----------------|

D|5-----5-----5---|--5-----5-------|

A|----------------|----------------|

D|----------------|----------------|



Verse 1:



I make a little bend down in all the pull-off from the Verse, and

if you want you can do a little pop in all the hammer-on and pull-off.



Dm

+ + + + + + + + + + + + + + + +

G|----------------|----------------|----------------|----------------|

D|0-r---0-r-------|0-r---0-r-30----|0-r---0-r-------|0-r---0-r----03-|

A|----------------|-----------p----|----------------|----------03--h-|

D|0-r---0-r-------|0-r---0-r-------|0-r---0-r-------|0-r---0-r--h----|



Dm

+ + + + + + + + + + + + + + + +

G|----------------|----------------|----------------|----------50----|

D|0-r---0-r-------|0-r---0-r-30----|0-r---0-r-------|0-r---0-r--p-30-|

A|----------------|-----------p----|----------------|--------------p-|

D|0-r---0-r-------|0-r---0-r-------|0-r---0-r-------|0-r---0-r-------|



Dm

+ + + + + + + + + + + + + + + +

G|----------------|----------------|----------------|----------------|

D|0-r---0-r-------|0-r---0-r----30-|0-r---0-r-------|0-r---0-r-30-30-|

A|----------------|----------03--p-|----------------|-----------p--p-|

D|0-r---0-r-------|0-r---0-r--h----|0-r---0-r-------|0-r---0-r-0--0--|



Pre-Chorus 1:



Dm

+ + + + + + + + + + + + + + + +

G||----------------|----------4-5---|----------------|----------4-5-4-||

D|0-r---0-r-------|0-r---0-r-------|0-r---0-r-------|0-r---0-r-------|

A|----------------|----------2-3---|----------------|----------2-3-2-|

D||0-r---0-r-------|0-r---0-r-0-0---|0-r---0-r-------|0-r---0-r-0-0-0-|| x2



Chorus (replace 2nd time C. End 1 with C. End 2):

___C. End 1____

\

Dm Bb A G Bb C

+ + + + + + + + + + + + + + + +

G||----75-5--------|----32020----0--|----------------|----------------||

D|------7-75---5--|---------3--3---|----75------53--|------03------23|

A|5-----------8---|1---------------|------75------53|1---13--3---35--|

D||----------------|----------------|7-------5-------|----------------|| x2



___________C. End 2____________

\

Bb C

+ + + +

G|----------------------75--------|

D|------------0-3---------765-----|

A|1---1---1-3-----3-----------8---|

D|--------------------------------|



Verse 2:



Dm

+ + + + + + + + + + + + + + + +

G|----------------|----------------|----------------|----------------|

D|------0-r-------|0-r---0-r----30-|0-r---0-r-------|0-r---0-r-30----|

A|5-r-------------|----------30--p-|----------------|-----------p-30-|

D|------0-r-------|0-r---0-r--p----|0-r---0-r-------|0-r---0-r-----p-|



Dm

+ + + + + + + + + + + + + + + +

G|----------------|----------------|----------------|----------------|

D|0-r---0-r-------|0-r---0-r-------|0-r---0-r-------|0-r---0-r--h----|

A|----------------|-----------p----|----------------|----------03----|

D|0-r---0-r-------|0-r---0-r-70----|0-r---0-r-------|0-r---0-r-------|



Dm

+ + + + + + + + + + + + + + + +

G|----------------|----------------|----------------|----------------|

D|0-r---0-r-------|0-r---0-r----30-|0-r---0-r-------|0-r---0-r-3-3-3-|

A|----------------|----------03--p-|----------------|----------------|

D|0-r---0-r-------|0-r---0-r--h----|0-r---0-r-------|0-r---0-r-3-3-3-|



Pre-Chorus 2:



Dm

+ + + + + + + + + + + + + + + +

G|----------------|----------4-5---|----------------|----------4-5-4-|

D|0-r---0-r-------|0-r---0-r-------|0-r---0-r-------|0-r---0-r-------|

A|----------------|----------2-3---|----------------|----------2-3-2-|

D|0-r---0-r-------|0-r---0-r-0-0---|0-r---0-r-------|0-r---0-r-0-0-0-|



Dm

+ + + + + + + + + + + + + + + +

G|----------4-5---|----------4-5-4-|----------4-5---|----------4-5-4-|

D|0-r---0-r-------|0-r---0-r-------|0-r---0-r-------|0-r---0-r-------|

A|----------2-3---|----------2-3-2-|----------2-3---|----------2-3-2-|

D|0-r---0-r-0-0---|0-r---0-r-0-0-0-|0-r---0-r-0-0---|0-r---0-r-0-0-0-|



Chorus &



+ + + +

G|----------------|

D|----------------|

A|5-r-------------|

D|----------------|



Percussion part:



(2:21)



C

+ + + + + + + + + + + + + + + +

G|----------------|----------------|----------------|----------------|

D|----------------|----------------|----------------|----------------|

A|--------3--5----|--3-3-6-3--5----|--3-3-6-3--5----|--3-3-6-3--5----|

D|------0---------|0------0--------|0------0--------|0------0--------|



C

+ + + + + + + + + + + + + + + +

G|----------------|----------------|----------------|----------------|

D|----------------|----------------|----------------|----------------|

A|3-3-3-3-3--5----|3-3-3-6-3--5----|3-3-3-3-3--5----|3-3-3-0-3--5----|

D|---0---0--------|---0---0--------|---0---0--------|---0------------|



Pre-Chorus 3:



Dm

+ + + + + + + + + + + + + + + +

G|----------------|----------4-5---|----------------|----------4-5-4-|

D|0-r---0-r-------|0-r---0-r-------|0-r---0-r-------|0-r---0-r-------|

A|----------------|----------2-3---|----------------|----------2-3-2-|

D|0-r---0-r-------|0-r---0-r-0-0---|0-r---0-r-------|0-r---0-r-0-0-0-|



Dm

+ + + + + + + + + + + + + + + +

G|----------4-5---|----------4-5-4-|----------4-5---|----------5-5-5-|

D|0-r---0-r-------|0-r---0-r-------|0-r---0-r-------|0-r---0-r-------|

A|----------2-3---|----------2-3-2-|----------2-3---|----------3-3-3-|

D|0-r---0-r-0-0---|0-r---0-r-0-0-0-|0-r---0-r-0-0---|0-r---0-r-------|



Chorus (replace 4th time the C. End 1 with C. End 2):

___C. End 1____

\

Dm Bb A G Bb C

+ + + + + + + + + + + + + + + +

G||----75-5--------|----32020----0--|----------------|----------------||

D|------7-75---5--|---------3--3---|----75------53--|------03------23|

A|5-----------8---|1---------------|------75------53|1---13--3---35--|

D||----------------|----------------|7-------5-------|----------------|| x4



___________C. End 2____________

\

Bb C

+ + + +

G|----------------------75--------|

D|------------0-3---------765-----|

A|1---1---1-3-----3-----------8---|

D|--------------------------------|

\_____/

|

Play quickly!



End with this:



+ + + +

G|----------------|

D|----------------|

A|5-r-------------|

D|----------------|





*******************************************************************

- - - - - +------------------+- - - - - -

/ \ / \ / \ / \ / \ / +| 6. SHE'S ONLY 18 |+ \ / \ / \ / \ / \ / \

- - - - - - +------------------+ - - - - -

*******************************************************************



Verse:



Dm

+ + + + + + + +

G|----3-----3---5-|----3-----3-----|

D|--35-53-35--5---|--35-53-35--5-3-|

A|-5-----5---5----|-5-----5---5----|

E|----------------|----------------|



Chorus:



Cm D# Gm F

+ + + + + + + +

G|----------------|--------------------------------|

D|--------/-------|--------------------------------|

A|3---3--3666-666-|--------------------------------|

E|----------------|3-------3-----3/131313--1313\\\-|



Cm D# Gm F

+ + + + + + + +

G|----------------|--------------------------------|

D|--------/-------|----------------3-3-------------|

A|3---3--3666-666-|--------------------------------|

E|----------------|3-------3---3-1-----------------|



Cm D# Gm F

+ + + + + + + +

G|----------------|--------------------------------|

D|--------/-------|--------------------------------|

A|3---3--3666-666-|--------------------------------|

E|----------------|3-------3-----3/131313--x-13\\\-|



_____ End 1 ___

\

Cm D# Dm Dm

+ + + + + + + + + + + +

G|----------------|----------------|7-7-7-777-7-7-7-|

D|--------/-------|---------------7|----------------|

A|3---3--3666-666-|5-5-5-5-5-5-5-5-|----------------|

E|----------------|----------------|----------------|



____ End 2 ____ ____ End 3 ____

\ \

Dm Dm

+ + + + + + + +

G|7-7-7-77777-777-| |777-7-77~-------|

D|----------------| |----------------|

A|----------------| |----------------|

E|----------------| |----------------|



Solo:



Cm Bb F Cm Cm Bb F Cm

+ + + + + + + + + + + + + + + +

G|----------------|----------------|----------------|----------------|

D|----------------|3---3--3--------|----------------|33--3-/53-------|

A|3---3--3-11-1---|---------33-3--1|3---3-33r11-1---|----------33---1|

E|----------------|-------------13-|----------------|-------------13-|



Cm Bb F Cm Cm Bb F

+ + + + + + + + + + + + + + + +

G|----------------|----------3-5---|----------------|----------------|

D|----------------|3---3----5-5-53-|----------------|3---333-33-3333-|

A|3---3--3-11-1---|-------3-------6|3---3-33r11-1--1|----------------|

E|----------------|----------------|----------------|----------------|



Song structure:



Verse (x6).

Chorus (with End 1).

Verse (x5)

Chorus (with End 2).

Solo.

Chorus (with End 3).







*******************************************************************

- - - - - +-----------------+ - - - - - -

/ \ / \ / \ / \ / \ / +| 7. SLOW CHEETAH |+ \ / \ / \ / \ / \ / \

- - - - - - +-----------------+ - - - - -

*******************************************************************



Verse 1:



(0:35)



A#m G# D# F#

+ + + + + + + +

G||3-------1-------|----------------||

D|----------------|1---------------|

A|----------------|----------------|

E||----------------|--------2-------|| x4



A#m C# D# F# A#m C#

+ + + + + + + + + + + +

G|----------------|----------------|----------------|

D|----------------|1-------4-------|----------------|

A|1-------4-------|----------------|1-------4-------|

E|----------------|----------------|----------------|



D#

+ + + + + + + +

G|----------------|----------------|

D|1---1--1111-1--1|1-1-1--11111111-|

A|----------------|----------------|

E|----------------|----------------|



Chorus 1:



F# C# D# F# C# D#

+ + + + + + + + + + + + + + + +

G|----------------|----------------|----------------|-------6888886--|

D|4-4-------------|1---------------|4-4-------------|----68--/-----8-|

A|--------4-4-----|----1-----------|--------4-4-----|6----h----------|

E|----------------|--------4---2---|----------------|----------------|



F# C# D# F# C# D#

+ + + + + + + + + + + + + + + +

G|----------------|----------------|----------------|----------------|

D|4-4-------------|1---------------|4-4-------------|----------------|

A|--------4-4-----|----1-----------|--------4-4-----|6---6--666666---|

E|----------------|--------4---2---|----------------|----------------|



Verse 2:



A#m C# D# F# A#m C# D# F#

+ + + + + + + + + + + + + + + +

G|----------------|----------------|----------------|------------1---|

D|----------------|1-1---134-4-41--|----------------|1-1---134-4--4--|

A|1-1---x14-4---14|--------------4-|1-1---1-4-4---14|----------------|

E|----------------|----------------|----------------|----------------|



A#m C# D# F# A#m C# D# F#

+ + + + + + + + + + + + + + + +

G|----------------|----------------|----------------|----------------|

D|----------------|1-----1-4-4-----|----------------|1---1-134-4-31--|

A|1-1---1-4-4---14|------------4---|1-1---1-4-4---1-|--------------4-|

E|----------------|--------------2-|----------------|----------------|



A#m C# D# F# A#m C#

+ + + + + + + + + + + +

G|----------------|----------/-----|----------------|

D|----------------|1-1-1-1-4-8-6-4-|----------------|

A|1-1---1-4-4-4-1-|----------------|1-1-1-1-4-4-4-4-|

E|----------------|----------------|----------------|



D#

+ + + + + + + +

G|----------------|----------------|

D|1---1--1111-1--1|1-1-1--1111-1-1-|

A|----------------|----------------|

E|----------------|----------------|



Chorus 2:



F# C# D# F# C# D#

+ + + + + + + + + + + + + + + +

G|----------------|----------------|----------------|-------68----68-|

D|4-4-------------|1---------------|4-4-------------|----68--h-68--h-|

A|--------4-4-----|----1-----------|--------4-4-----|6----h-----h----|

E|----------------|--------4---2---|----------------|----------------|



F# C# D# F# C# D#

+ + + + + + + + + + + + + + + +

G|----------------|----------------|----------------|----8-----------|

D|4-4-------------|1---------------|4-4-------------|----------------|

A|--------4-4-----|----1-----------|--------4-4-----|6------6666-6---|

E|----------------|--------4---2---|----------------|----------------|



D#

+ + + +

G|----------------|

D|----------------|

A|6--6---6---6----|

E|----------------|



Verse 3:



A#m G# D# F# A#m G# D# F#

+ + + + + + + + + + + + + + + +

G|3---3-3-1---1-1-|----------------|3---3-3-1---1-1-|----------------|

D|----------------|1---1-1-----4-4-|----------------|1---1-1---------|

A|----------------|----------------|----------------|----------------|

E|----------------|--------2-------|----------------|--------2-------|



A#m C# D# F# A#m C# D# F#

+ + + + + + + + + + + + + + + +

G|----------------|----------------|----------------|----------------|

D|----------------|1---1-3-4---4-
Get this song at amazon.com      Ebay     Ringtones Ringtones  


Learn to play: Songwriting, Piano, Harmonica, Guitar
More Red Hot Chili Peppers lyrics available at Muzikum

Related Red Hot Chili Peppers Tabs

Throw Away Your Television (3) tabs
Universally Speaking (5) tabs
Turn It Again Bass tabs
Mellowship Slinky In B Major (2) tabs
Torture Me tabs
Dani California Guitar Tab tabs
Stadium Arcadium Bass tabs
Readymade tabs
Dosed tabs
Tell Me Baby Perfect tabs
Venice Queen (5) tabs
Leverage Of Space tabs
Over Funk tabs
Havana Affair Bass tabs
Sexy Mexican Maid tabs
Suck My Kiss tabs
If You Have To Ask Bass tabs
Quixoticelixer tabs
Behind The Sun tabs
Don t forget me tabs


Guitar Tabs









All tabs are property and copyright of their owners. All tabs provided for educational purposes only. Privacy Policy, DMCA