Red Hot Chili Peppers

Spicy Salsa Jam Bass Tabs



More from Red Hot Chili Peppers

Red Hot Chili Peppers Tabs
Red Hot Chili Peppers Chords
Red Hot Chili Peppers Bass
Red Hot Chili Peppers Lyrics



Artist: Red Hot Chili Peppers
Title: Spicy Salsa Jam
Tabbed by: vodkajelly dcgeneration@aol.com

live track (40 second jam)

Bass intro (after johns guitar)
G|--------------------------------|
D|--------------------------------|
A|--2--2--------789------789----- |
E|---23--------9--------9---------|

Main Riff
G|-------------------------------|-----------------------------|
D|-------------------------------|-----------------------------|
A|--2--2---------2--2------------|---789-------------789------|
E|---23-----------23-------------|--9---------------9----------|

Outro
G|--------------------------------|
D|--------------------------------|
A|--2--2--------------------------|
E|---23---------------------------|

thats all there is to it. very easy. if your lucky enough to have heard this gem of a jam
it should be spot on.
those of you who havnt, make sure you search for it!

Taken from The BassMasta -- http://www.tabs-database.com



Get this song at amazon.com      Ebay     Ringtones Ringtones  


Learn to play: Songwriting, Piano, Harmonica, Guitar
More Red Hot Chili Peppers lyrics available at Muzikum

Related Red Hot Chili Peppers Bass Tabs

Venice Queen bass
The Zephyr Song bass
She Looks To Me bass
Out In L.a. bass
Flea Video Bass Tab bass
If bass
Parellel Universe bass
Fire bass
By The Way (correct) bass
C'mon Girl bass
FelaĊ½s Cock bass
Californication (super Alternative For Introduction) bass
Slane Castle Jam 2 bass
Aeroplane (perfect) bass
Suck My Kiss! Awesome bass
Easily bass
Under The Bridge (guitar Intro For Bass) bass
My Friends bass
Hyde Park: Bass Solo #1 bass
Religion bass


Guitar Tabs









All tabs are property and copyright of their owners. All tabs provided for educational purposes only. Privacy Policy, DMCA