Red Hot Chili Peppers

Soul To Squeeze (perfecto!!) Bass Tabs



More from Red Hot Chili Peppers

Red Hot Chili Peppers Tabs
Red Hot Chili Peppers Chords
Red Hot Chili Peppers Bass
Red Hot Chili Peppers Lyrics




Intro
G-12h14--------14----14h16-14--------|-----------------|
D--------14h16----16-----------------|-----------------|
A------------------------------------|-0-0-0-0-0-0-0-0-|
E------------------------------------|-----------------|
(Play Once) (Play 4 Times)

G--------------------------------|------------------------|
D------------------0-2-3---------|-0-0---0-3---3----------|
A----------3-3-2-3-------1-------|-----0-----1---3--------|
E-1-1--3/5-----------------------|-------------------3-6/-|

G---------------------------33---|------------------------|
D------------------0-2-3---------|-0-0---0-3---3----------|
A----------3-3-2-3-------1-------|-----0-----1---3--------|
E-1-1--3/5-----------------------|-------------------3-/6-|

Verse 1
G--------------------------------|------------------------|
D------------------0-2-3---------|-0-0---0-3---3----------|
A----------3-3-2-3-------1-------|-----0-----1---3--------|
E-1-1--3/5-----------------------|-------------------3-6/-|

G---------------------------33---|--------------------------|
D------------------0-2-3---------|-0-0---0-3---3--5------3--|
A----------3-3-2-3-------1-------|-----0-----1---3-31-3h5-53|
E-1-1--3/5-----------------------|--------------------------|
(Repeat Whole Verse Portion)

Chorus 1
G---2-3-5---2-------------------------------2-3-5---2-2h3p2---
D-3-----------3-5-0-0-0-2-3-----------5-4-3----------------35-
A---------3-----------------1-11-1-3h5-3----------3-----------
E-------------------------------------------------------------

G-------------------
D-0-0-0-2-3---------
A-----------0-0-1---
E-------------------

Verse 2
G--------------------------------|------------------------|
D------------------0-2-3---------|-0-0---0-3---3----------|
A----------3-3-2-3-------1-------|-----0-----1---3--------|
E-1-1--3/5-----------------------|-------------------3-6/-|

G---------------------------33---|----------------------------|
D------------------0-2-3---------|-0-0---0-3---3--5------3----|
A----------3-3-2-3-------1-------|-----0-----1---3-31-3h5-5p3-|
E-1-1--3/5-----------------------|---------------------------5|
(Repeat Whole Verse Portion)

Chorus 2
G---2-3-5---2-------------------------------2-3-5---5-3-2---
D-3-----------3-5-0-0-0-2-3-----------5-4-3---------------5-
A---------3-----------------1-11-1-3h5-3----------3---------
E-----------------------------------------------------------

G-------------------
D-0-0-0-2-3---------
A-----------0-0-1---
E-------------------

Guitar Solo
G--------------------------------|------------------------|
D------------------0-2-3---------|-0-0---0-3---3----------|
A----------3-3-2-3-------1-------|-----0-----1---3--------|
E-1-1--3/5-----------------------|-------------------3-6/-|

G---------------------------33---|--------------------------|
D------------------0-2-3---------|-0-0---0-3---3--5------3--|
A----------3-3-2-3-------1-------|-----0-----1---3-31-3h5-53|
E-1-1--3/5-----------------------|--------------------------|
(Repeat Whole Guitar Solo Portion)

Bass Solo
G---7-10h12------5---5-----|---7-10h12------------|
D-----10------5h75h7-7----|-----10---------------|
A-5------------------------|-5--------------------|
E-----8----------------8---|-----8-------5-5-6-6/-|
(Play 3 Times) (Play Once)

Verse 3
G--------------------------------|------------------------|
D------------------0-2-3---------|-0-0---0-3---3----------|
A----------3-3-2-3-------1-------|-----0-----1---3--------|
E-1-1--3/5-----------------------|-------------------3-6/-|

G---------------------------33---|--------------------------|
D------------------0-2-3---------|-0-0---0-3---3--5------3--|
A----------3-3-2-3-------1-------|-----0-----1---3-31-3h5-53|
E-1-1--3/5-----------------------|--------------------------|
(Repeat Whole Verse Portion)

Chorus/ Outro
G---2-3-5---2-2h3p3----------------------------2-3-5/1210-
D-3----------------35-0-0-0-2h3-----------5-4-3-3-3-------
A---------3---------------------1-11-1-3h5-3--------------
E---------------------------------------------------------

G------23532-------------------2-3-5/1210------2/52h3p2----------
D---235-----0-0-0-2-3---------3-3-3---------235--------0-0-0-2h3-
A-3-------------------0-0-1---------------3----------------------
E----------------------------------------------------------------

G-----------5-----2-2-3-5/1210-----2-----------------------------
D--------3h5-53-3-----------------5-53532320-0-0-2-3-------------
A-1-11-1-----------------------3---------------------0-0-1-------
E----------------------------------------------------------------



Get this song at amazon.com      Ebay     Ringtones Ringtones  


Learn to play: Songwriting, Piano, Harmonica, Guitar
More Red Hot Chili Peppers lyrics available at Muzikum

Related Red Hot Chili Peppers Bass Tabs

Higher Ground (stevie Wonder Cover) bass
Walkabout bass
Dosed (perfect ;) bass
Love Trilogy bass
Grand Pappy Du Plenty bass
123456 bass
Good Time Boys bass
Lovin And Touchin bass
Around The World2 bass
Tell Me Baby bass
She's Only 18 bass
Religion bass
By The Way bass
Deep Kick bass
Hyde Park: Bass Solo #3 bass
Baby Appea bass
Can't Stop Bass Tab bass
Annie Wants A Baby bass
What It Is bass
Taste The Pain (correct Chorus And Intro) bass


Guitar Tabs









All tabs are property and copyright of their owners. All tabs provided for educational purposes only. Privacy Policy, DMCA