Red Hot Chili Peppers

Soul To Squeeze (improv Part Near The End) Bass Tabs



More from Red Hot Chili Peppers

Red Hot Chili Peppers Tabs
Red Hot Chili Peppers Chords
Red Hot Chili Peppers Bass
Red Hot Chili Peppers Lyrics



First Time
G|-------------------------------10H12--10---
D|--------7------8----------10---------------
A|-8---------8-------8-----------------------
E|-------------------------------------------

G|-------------------------------------------
D|-------------7-8-10--8-7-------------------
A|-----7-8-10--------------10---------------
E|-8-----------------------------------------


Second Time
G|-------------------------------10H12--10---
D|--------7------8----------10---------------
A|-8---------8-------8-----------------------
E|-------------------------------------------

G|-------------------------------------------
D|-------------7-8H10--8/7/8/7------------
A|-----7-8-10-----------------------10------
E|-8-----------------------------------------

Third Time
G|-------------------10H12--10---------------
D|--------7-8--10--------------10-----------
A|-8-----------------------------------------
E|-------------------------------------------

G|----------------------------------------------
D|---------10-12-10-8-10-8-7-8-7----------------this line is all triplets
A|----------------------------------------------
E|-8--------------------------------------------

This is a great tab a friend taught it to me



Get this song at amazon.com      Ebay     Ringtones Ringtones  


Learn to play: Songwriting, Piano, Harmonica, Guitar
More Red Hot Chili Peppers lyrics available at Muzikum

Related Red Hot Chili Peppers Bass Tabs

All Around The World bass
Get On Top bass
By The Way (live) bass
Give It Away bass
Under The Bridge Intro On Bass bass
Hollywood bass
Factory Of Faith bass
True Men Don't Kill Coyotes bass
Get Up And Jump bass
Castles Made Of Sun bass
Easily bass
Easiliy bass
The Zephyr Song bass
I Could Have Lied bass
Goodbye Hooray bass
Dani California (turned Into Tabs From Notes) bass
Cabron bass
Hey Bass Tab bass
Scar Tissue......perfect bass
American Ghost Dance bass


Guitar Tabs









All tabs are property and copyright of their owners. All tabs provided for educational purposes only. Privacy Policy, DMCA