Red Hot Chili Peppers

Soul To Squeeze ( 100% Right From Bass Book ) Bass Tabs



More from Red Hot Chili Peppers

Red Hot Chili Peppers Tabs
Red Hot Chili Peppers Chords
Red Hot Chili Peppers Bass
Red Hot Chili Peppers Lyrics



SONG PLAYED AT 84 BPM
INTRO
G------12H14--------14------14H16--14----------------------------------------
D-------------14H16-----16---------------------------------------------------
A----------------------------------------------------------------------------
E----------------------------------------------------------------------------

G--------------------------------
D--------------------------------
A----0-0-0-0-0-0-0-0 X4----------
E--------------------------------

PART 1

G----------------------------------------------------------------------------------
D----------------------------------------------------------------------------------
A--------------3-3-2-3--5-7-8------5-5---5-8---------------------------------------
E--1-1-3SLIDE5-----------------6-------5-----8---8SLIDE3--6---6--------------------
-
PART 2

G----------------------------------------------------------------------------------
D---------------------------------8-8-8--------------------------------------------
A--------------3-3-2-3--5-7-8-----------5-5---5--8---8-----------------------------
E--1--1---3H5------------------6------------5------6---8---8SLIDE3---6----6--------

THATS IT U CAN FIGURE OUT THE ORDER SORRY BUT IM TO LAZY



Get this song at amazon.com      Ebay     Ringtones Ringtones  


Learn to play: Songwriting, Piano, Harmonica, Guitar
More Red Hot Chili Peppers lyrics available at Muzikum

Related Red Hot Chili Peppers Bass Tabs

By The Way::::::101% Correct, No Questions Asked bass
Warlocks bass
Subterranean Homesick Blues bass
Hard To Concentrate bass
Especially In Michigan bass
Lovin And Touchin bass
The Brothers Cup From Sheet Music bass
Parellel Universe bass
Spell Correctly bass
Out Of Range bass
Arpeggiating bass
Bunker Hill bass
Cant Stop bass
Make You Feel Better bass
Sikamikanico bass
If bass
Road Trippin bass
Dr Funkenstein bass
Nobody Wierd Like Me bass
Love Rollercoaster bass


Guitar Tabs









All tabs are property and copyright of their owners. All tabs provided for educational purposes only. Privacy Policy, DMCA