Red Hot Chili Peppers

Soul To Sqeeze (improved) Bass Tabs



More from Red Hot Chili Peppers

Red Hot Chili Peppers Tabs
Red Hot Chili Peppers Chords
Red Hot Chili Peppers Bass
Red Hot Chili Peppers Lyrics




I improved the tabs that were already on the sit

Intro
G|------12h14--------14------14h16--14--|
D|-------------14h16-----16-------------|
A|--------------------------------------|
E|--------------------------------------|

G|-----------------|
D|-----------------|
A|-0-0-0-0-0-0-0-0-| x4
E|-----------------|

G|-----------------------------|-------------------------|
D|-----------------0-2-3-------|-0-0---0-3---3-----------|
A|---------3-3-2-3-------1-----|-----0-----1---3-----1---|
E|-1-1--3/---------------------|-------------------3-----|

G|-------------------------333-|-------------------------|
D|-----------------0-2-3-------|-0-0---0-3---3-----------|
A|---------3-3-2-3-------1-----|-----0-----1---3-----1---|
E|-1-1--3/---------------------|-------------------3-----|

Verse
G|-----------------------------|-------------------------|
D|-----------------0-2-3-------|-0-0---0-3---3-----------|
A|---------3-3-2-3-------1-----|-----0-----1---3-----1---|
E|-1-1--3/---------------------|-------------------3-----|

G|-----------------------------|---------------------------------|
D|-----------------0-2-3-------|-0-0---0-3---3----5---------3----|
A|---------3-3-2-3-------1-----|-----0-----1---3----3-1-3h5---5-3|
E|-1-1--3/---------------------|---------------------------------|

G|-------------------------333-|-------------------------|
D|-----------------0-2-3-------|-0-0---0-3---3-----------|
A|---------3-3-2-3-------1-----|-----0-----1---3-----1---|
E|-1-1--3/---------------------|-------------------3-----|

G|-----------------------------|-------------------------|
D|-----------------0-2-3-------|-0-0---0-3---3-----------|
A|---------3-3-2-3-------1-----|-----0-----1---3-----1---|
E|-1-1--3/---------------------|-------------------3-----|

Chorus
G|------------------------------------------------|
D|---7-8-10---7-----------------------------------|
A|-8------------8-105-5-5-78-------------10-9-8---|
E|----------8-----------------6-66-6-8h10---------|

G|------------------------------------------|
D|---7-8-10---7-7h8p7-----------------------|
A|-8-----------------8-105555-78------------|
E|-----------8---------------------55555-6--|

Verse
G|-----------------------------|-------------------------|
D|-----------------0-2-3-------|-0-0---0-3---3-----------|
A|---------3-3-2-3-------1-----|-----0-----1---3-----1---|
E|-1-1--3/---------------------|-------------------3-----|


G|-----------------------------|---------------------------------|
D|-----------------0-2-3-------|-0-0---0-3---3----5---------3----|
A|---------3-3-2-3-------1-----|-----0-----1---3----3-1-3h5---5-3|
E|-1-1--3/---------------------|---------------------------------|

Chorus
G|------------------------------------------------|
D|---7-8-10---7-----------------------------------|
A|-8------------8-105-5-5-78-------------10-9-8---|
E|----------8-----------------6-66-6-8h10---------|

G|------------------------------------------|
D|---7-8-10---7-7h8p7-----------------------|
A|-8-----------------8-105555-78------------|
E|-----------8---------------------55555-6--|

Bridge
G|-------------------------333-|-------------------------|
D|-----------------0-2-3-------|-0-0---0-3---3-----------|
A|---------3-3-2-3-------1-----|-----0-----1---3-----1---|
E|-1-1--3/---------------------|-------------------3-----|

G|-----------------------------|-------------------------|
D|-----------------0-2-3-------|-0-0---0-3---3-----------|
A|---------3-3-2-3-------1-----|-----0-----1---3-333333--|
E|-1-1--3/---------------------|-------------------------|

Bass Solo
G--7--10/12-----5-----5-------I
D------8/10--5h7---5h7-7------I x3
A-5b--------------------------I
E-----------------------8-----I

G--7--10/12-------------------I
D------8/10-------------------I
A-5b--------------------------I
E------------5-5-5-6-6-6-6----I

Verse
G|-----------------------------|-------------------------|
D|-----------------0-2-3-------|-0-0---0-3---3-----------|
A|---------3-3-2-3-------1-----|-----0-----1---3-----1---|
E|-1-1--3/---------------------|-------------------3-----|

G|-----------------------------|---------------------------------|
D|-----------------0-2-3-------|-0-0---0-3---3----5---------3----|
A|---------3-3-2-3-------1-----|-----0-----1---3----3-1-3h5---5-3|
E|-1-1--3/---------------------|---------------------------------|

G|-------------------------333-|-------------------------|
D|-----------------0-2-3-------|-0-0---0-3---3-----------|
A|---------3-3-2-3-------1-----|-----0-----1---3-----1---|
E|-1-1--3/---------------------|-------------------3-----|

G|-----------------------------|-------------------------|
D|-----------------0-2-3-------|-0-0---0-3---3-----------|
A|---------3-3-2-3-------1-----|-----0-----1---3-----1---|
E|-1-1--3/---------------------|-------------------3-----|



Chorus + End
G---------------------------------------------------------------------I
D---7-8-10---7-7h8p7-------------7------------------------------------I
A-8-----------------8-105555-7h8--------------10----------------------I
E----------8-----------------------6-66-6-8h10--10-8------------------I

G--------10/12-10-------------------------------------------------I
D---7-8--------------------7-8-10-8-7-----------------------------I
A-8--8-8------------7-8-10------------555-7-8---------------------I
E-----------------8------------------------------5555-------------I

G--------10/12-10--------------------------------------------------I
D---7-8--------------------7/10-7h8p7----------7-------------------I
A-8--8-8------------7-8-10------------555-7h8---------------10-----I
E-----------------8-----------------------------6-66-6--8h10--10-8-I

G----------10/12-10--------------------------------------------I
D---7-7-8-10----------101210-8108-787--------------------------I
A-8-----------------------------------555-7-8------------------I
E------------------8--------------------------5555-------------I



Get this song at amazon.com      Ebay     Ringtones Ringtones  


Learn to play: Songwriting, Piano, Harmonica, Guitar
More Red Hot Chili Peppers lyrics available at Muzikum

Related Red Hot Chili Peppers Bass Tabs

Goodbye Hooray bass
Fly bass
Suck My Kiss (correct) bass
Fire bass
Scar Tissue......perfect bass
Shallow Be Thy Game bass
Out In La bass
Aeroplane bass
Purple Stain(complete) bass
Ready Me bass
21st Century bass
Soul To Squeeze (now Really 100% Correct !) bass
Lets Make Evil bass
Funky Monks bass
If You Have To Ask (verse) bass
Flea Bass Solo Fix bass
Dani California (perfect) bass
Show Me Your Soul bass
Skinny Sweety Man bass
Righteous And The Wicked bass


Guitar Tabs









All tabs are property and copyright of their owners. All tabs provided for educational purposes only. Privacy Policy, DMCA