Red Hot Chili Peppers

So Much I Bass Tabs



More from Red Hot Chili Peppers

Red Hot Chili Peppers Tabs
Red Hot Chili Peppers Chords
Red Hot Chili Peppers Bass
Red Hot Chili Peppers Lyrics




Intro
G|---------2-----------------------------|-----------2--------------------------|
D|-----4-----------2---------------------|------4------------2---------0--------|
A|-------------4--------2----4----0------|---------------4---------2-------0----|
E|-2-------------------------------------|--2-----------------------------------| x4

Verse
G|---------2-----------------------------|-----------2-------------------------|
D|-----4-----------2---------------------|------4------------2---------0-------|
A|-------------4--------2----4----0------|---------------4---------2-------0---|
E|-2-------------------------------------|--2----------------------------------| x4

Fill
G|--------------------------------------------------------|
D|--------------------------------------------------------|
A|-0-0-0-0-0-0-0-0-0-3-3-3-3-3-3-3------------------------|
E|--------------------------------------------------------| x1

Intro
G|---------2-----------------------------|-----------2--------------------------|
D|-----4-----------2---------------------|------4------------2---------0--------|
A|-------------4--------2----4----0------|---------------4---------2-------0----|
E|-2-------------------------------------|--2-----------------------------------| x1

Verse
G|---------2-----------------------------|-----------2-------------------------|
D|-----4-----------2---------------------|------4------------2---------0-------|
A|-------------4--------2----4----0------|---------------4---------2-------0---|
E|-2-------------------------------------|--2----------------------------------| x4

Fill
G|--------------------------------------------------------|
D|--------------------------------------------------------|
A|-0-0-0-0-0-0-0-0-0-3-3-3-3-3-3-3------------------------|
E|--------------------------------------------------------| x1

Pre-Chorus
G|--------11-----------11-----11--------|
D|--------------------------------------|
A|-9--9-------9---9--------9------------|
E|--------------------------------------|


G|--------9------------9---------9------|
D|--------------------------------------|
A|-7--7-------7---7--------7------------|
E|--------------------------------------|

1st+3rd Times ---------------------------------|
|
G|--------7------------7---------7------| |
D|--------------------------------------| |
A|-5--5-------5---5--------5------------| |
E|--------------------------------------| |
|
|
G|--------2------------2---------2------| |
D|--------------------------------------| |
A|-0--0-------0---0--------0------------| |
E|--------------------------------------| |
|

2nd+4th Times------------------------------|
|
G|-----------------|------------------| |
D|-----------------|------------------| |
Al-----------------|------------------| |
E|-7-7-7-7-7-7-7-7-|-7-7-7-7-7-7-7-7--| |
|

Chorus
Gl--------6-7-9-----------------------------------------|
Dl-7-7-7---------------6-7-9------------------7-9h11--9-|
Al----------------7-7-7----------------6-7--9-----------|
El--------------------------------7-7-7-----------------|

Gl--------6-7-9--------------------------------------6-9-6------|
Dl-7-7-7---------------6-7-9-------------------7-9---------9----|
Al----------------7-7-7----------------6-7--9-------------------|
El--------------------------------7-7-7-------------------------|

Gl--------6-7-9--------------------------------------6-9-11-9----|
Dl-7-7-7---------------6-7-9-------------------7-9-----------119-|
Al----------------7-7-7----------------6-7--9--------------------|
El--------------------------------7-7-7--------------------------|

Gl--------6-7-9---------------------------------------------------|
Dl-7-7-7---------------6-7-9--------------------------------------|
Al----------------7-7-7-------------------------------------------|
El--------------------------------7-7-7-7-7-7-7-7-7-7-7-7-7-7-7-7-|

Intro x1

Verse x4

Fill x1

Pre-Chorus x1

Chorus
Gl--------6-7-9-------------------------------------------|
Dl-7-7-7---------------6-7-9------------------7-9--11-9---|
Al----------------7-7-7----------------6-7--9-----------7-|
El--------------------------------7-7-7-------------------|

Gl--------6-7-9--------------------------------------6-11-9------|
Dl-7-7-7---------------6-7-9-------------------7-9---------119---|
Al----------------7-7-7----------------6-7--9--------------------|
El--------------------------------7-7-7--------------------------|

Gl--------6-7-9-------------------------------------------|
Dl-7-7-7---------------6-7-9------------------7-9--11-9---|
Al----------------7-7-7----------------6-7--9-----------7-|
El--------------------------------7-7-7-------------------|

Gl--------6-7-9-------------------------------1414141414141414-|14=fourteen
Dl-7-7-7---------------6-7-9-----------679----------------------|
Al----------------7-7-7------------6-79-------------------------|
El--------------------------------7----------------------------|

Gl--------6-7-9--------------------------------------6-11-9------|
Dl-7-7-7---------------6-7-9-------------------7-9---------119---|
Al----------------7-7-7----------------6-7--9--------------------|
El--------------------------------7-7-7--------------------------|

Gl--------6-7-9--------------------------------------------|
Dl-7-7-7---------------6-7-9-------------------------------|
Al----------------7-7-7--------------6-7-9-1212121212121212-| 12=twelve
El--------------------------------7-7----------------------|

Solo-
1st, 2nd, 3rd Time, same as above, improvise



Get this song at amazon.com      Ebay     Ringtones Ringtones  


Learn to play: Songwriting, Piano, Harmonica, Guitar
More Red Hot Chili Peppers lyrics available at Muzikum

Related Red Hot Chili Peppers Bass Tabs

Slane Castle Jam bass
Get Up And Jump bass
Flea Bass Solo Fix bass
Turn It Again bass
All Around The World bass
Rare Bass Solo bass
Overfunk (b-side) (corrected) bass
Skinny Sweety Man bass
Rolling Sly Stone bass
Transcending bass
Parellel Universe bass
Fight Like A Brave bass
So Much I bass
Pretty Little Ditty bass
Ill Be Your Domino bass
What It Is (ninas Song) bass
Mellowship Slinky In Bminor bass
Baby Appea bass
I Could Have Lied (live) bass
Gong Li bass


Guitar Tabs









All tabs are property and copyright of their owners. All tabs provided for educational purposes only. Privacy Policy, DMCA