Red Hot Chili Peppers

Snow Hey Oh Bass Tabs



More from Red Hot Chili Peppers

Red Hot Chili Peppers Tabs
Red Hot Chili Peppers Chords
Red Hot Chili Peppers Bass
Red Hot Chili Peppers Lyrics

Group: Red Hot Chili Peppers
Title: Snow
Album: Stadium Arcadium
Tabbed by: Jon Turner jrt5024@gmail.com
Here goes to tabbing (or at least learning) the entire album. Iím starting with this
Dani California already has some fine tabs, and Iíll be going in order. If I donít post a
itís cause I suck at bass cause Iím sure as heck not busy right now and have no real
I donít think these tabs are gonna be much help, and Iím sure better players will come
later and tab better ones, but seeing as how there are no tabs out yet, and Iím gonna
the songs anyway, I figured Iíd just try to throw in my own attempts. I hope they help.
I love Johnís vocal part on this song.
11 or 13, thatísÖ 11 or 13, not 1 or 3 (twice).
E-mail comments, suggestions, error-mistakes, etc. to jrt5024@gmail.com. Thx! :D
-------------------------------------------
Guitar intro (4 measure rest)
VERSE 1 - :09
(riff 1)
* + * + * + * + * + * + * + * +
G|----------------|----------------|
D|----------------|----------------|
A|------467-------|------679-------|
E|4---------------|7---------------|
* + * + * + * + * + * + * + * +
G|----------------|----------------|
D|----------------|----------------|
A|------467-------|------679-------|
E|4---------------|7-----------7---|
(riff 2)
* + * + * + * + * + * + * + * +
G|----------------|----------------|
D|----------------|----------------|
A|------467-------|------679-------|
E|4---------------|7---------------|
* + * + * + * + * + * + * + * +
G|----------------|----------------|
D|----------------|-------------64-|
A|------467-------|------679-------|
E|4---------------|7---------------|
(6p4)
(riff 3)
* + * + * + * + * + * + * + * +
G|----------------|----------------|
D|----------------|----------------|
A|------467-------|------679-------|
E|4---------------|7---------------|
* + * + * + * + * + * + * + * +
G|----------------|----------------|
D|----------------|----------------|
A|------467-------|------679-------|
E|4---------------|7-----------7-6-|
CHORUS - :37
* + * + * + * + * + * + * + * +
G|----------------|----------------|
D|----------------|----------------|
A|----4-6-7---6-4-|----6-7-9-------|
E|4---------------|7-----------7-6-|
* + * + * + * + * + * + * + * +
G|----------------|----------------|
D|----------------|----------------|
A|----4-6-7---6-4-|----------------|
E|4---------------|7---6-4-2---2-2-|
Repeat (and in future choruses)
Verse 2 - :55
Riff 1
(riff 4)
* + * + * + * + * + * + * + * +
G|----------------|----------------|
D|----------------|----------------|
A|------467-------|------679-------|
E|4---------------|7---------------|
* + * + * + * + * + * + * + * +
G|----------------|----------------|
D|----------------|------------6-4-|
A|------467-------|------679-------|
E|4---------------|7---------------|
Chorus 2 Ė 1:14
Interlude 1 Ė 1:32
* + * + * + * + * + * + * + * +
G|9-9-9-9-9-9-9-9-|9-9-9-9-9-111111|
D|----------------|----------------|
A|----------------|----------------|
E|----------------|----------------|
* + * + * + * + * + * + * + * +
G|1313131313131313|1313131313111111|
D|----------------|----------------|
A|----------------|----------------|
E|----------------|----------------|
* + * + * + * + * + * + * + * +
G|9-9-9-9-9-9-9-9-|9-9-9-9-9-9-9-9-|
D|----------------|----------------|
A|----------------|----------------|
E|----------------|----------------|
*NOTE Ė this section totally caught me by surprise. I originally thought it was an
lower and played with the bass drum, before I really listened and realized thereíre higher
You can really hear it on the 13, but the 11 sticks out too cause itís on the offbeat
I also didn't notice at first). You can barely hear it. So sneaky! It sounds like
lower stuff when I have my bass really turned up, but I think thatís just the bass drum
cause you donít hear it at all when the bass volume is normal. I dunno. It also sounds
the very last measure might be an octave lower, but again, I only hear that when the
is SUPER turned up and not otherwise, and I donít hear it on the 2nd interlude. :
Bridge / Outro 1 Ė 1:46
* + * + * + * + * + * + * + * +
G|----------------|----------------|
D|----------------|----------------|
A|2-222-2222222-22|----------------|
E|----------------|2-222-2222222-22|
* + * + * + * + * + * + * + * +
G|----------------|----------------|
D|----------------|----------------|
A|4-444-4444444-44|4-444-4444444-44|
E|----------------|----------------|
Repeat 2x
Verse 3 Ė 2:22
Riff 3
(riff 5)
* + * + * + * + * + * + * + * +
G|----------------|----------------|
D|----------------|----------------|
A|------467-------|------679-------|
E|4---------------|7---------------|
* + * + * + * + * + * + * + * +
G|----------------|------------1311-------|
D|----------------|-----------------------|
A|------467-------|------679--------------|
E|4---------------|7----------------------|
*NOTE - Itís possible the 13-11 is D|6-4--| instead, but it sounds higher. Just listen
it, do what you want.
Riff 3
Chorus 3 Ė 2:50
Interlude 2 Ė 3:08
* + * + * + * + * + * + * + * +
G|9-9-9-9-9-9-9-9-|9-9-9-9-9-111111|
D|----------------|----------------|
A|----------------|----------------|
E|----------------|----------------|
* + * + * + * + * + * + * + * +
G|1313131313131313|1313131311111111|
D|----------------|----------------|
A|----------------|----------------|
E|----------------|----------------|
* + * + * + * + * + * + * + * +
G|9-9-9-9-9-9-9-9-|9-9-9-9-9-9-9-9-|
D|----------------|----------------|
A|----------------|----------------|
E|----------------|----------------|
Bridge / Outro 2 Ė 3:22
Repeat 13x
(14th time)
* + * + * + * + * + * + * + * +
G|----------------|----------------|
D|----------------|----------------|
A|2-222-2222222-22|----------------|
E|----------------|2-222-2222222-22|
* + * + * + * +
G|----------------|
D|----------------|
A|4---------------|
E|----------------|
Whew. Great song. Itís real simple, too, so thatís nice. :D
~Jon



Get this song at amazon.com      Ebay     Ringtones Ringtones  


Learn to play: Songwriting, Piano, Harmonica, Guitar
Also available at Muzikum: Red Hot Chili Peppers - Snow (Hey Oh) lyrics

Related Red Hot Chili Peppers Bass Tabs

Time bass
Bunker Hill bass
Around The World2 bass
Can't Stop (correct) bass
Nobody Wierd Like Me bass
Good Time Boys bass
Ready Made bass
Pea bass
Dani Calofnia bass
Overfunk (b-side) (corrected) bass
Rolling Sly Stone bass
Out In L.a. bass
Californication(correct) bass
Bullet Proof bass
Carbon bass
Hyde Park Bass Solo #2 bass
Slow Cheetah bass
Other side bass
This Is The Place(bueno) bass
Giveitaway bass


Guitar Tabs









All tabs are property and copyright of their owners. All tabs provided for educational purposes only. Privacy Policy, DMCA