Red Hot Chili Peppers

Slow Cheetah Tabs



More from Red Hot Chili Peppers

Red Hot Chili Peppers Tabs
Red Hot Chili Peppers Chords
Red Hot Chili Peppers Bass
Red Hot Chili Peppers Lyrics



----------------------------------------------------------------------------

SLOW CHEETAH SOLO - Red Hot Chili Peppers

------------------------------------------------------------------------

Tabbed by: BloodCellZ



Note: The other version of this song is really good but it doesn't have that awesome

So I decided to tab it out for u. I'm 99% sure this is right i'm just not sure about the

two notes, but they work in the key so wtf!



Tuning: Standard



Start: 3:38

e|---------------------------------------------------------------------|

B|----9--------------------9-11----------------------------------------|

G|-8^---8^--6-8-6~-----8h10-------8^-6-8-8~----------------------------|

D|---------------------------------------------------------------------|

A|---------------------------------------------------------------------|

E|---------------------------------------------------------------------|



e|---------------------------------------------------------------------|

B|-------------------------------9-11----------------------------------|

G|------6-8--8^r-6h8-6-6~---8h10------8^-6-8-8~------------------------|

D|-6h8-----------------------------------------------------------------|

A|---------------------------------------------------------------------|

E|---------------------------------------------------------------------|



e|---------------------------------------------------------------------|

B|---------------------------------------------------------------------|

G|-----6h8-6h8-10p8-6h8-6-6~--------9-11-------------------------------|

D|-6h8-------------------------8h10------8^-6-8-8~---------------------|

A|---------------------------------------------------------------------|

E|---------------------------------------------------------------------|



e|---------------------------------------------------------------------|

B|---------------------------------------------------------------------|

G|-----6-8--8^r-6h8-6-6~--------9-11-----------------------------------|

D|-6h8---------------------8h10------8^-6-8~---------------------------|

A|---------------------------------------------------------------------|

E|---------------------------------------------------------------------|





| / slide up

| \ slide down

| h hammer-on

| p pull-off

| ~ vibrato

| + harmonic

| x Mute note

===============================================================================Added by tabs-database.com and our distinguished partners
Get this song at amazon.com      Ebay     Ringtones Ringtones  


Learn to play: Songwriting, Piano, Harmonica, Guitar
More Red Hot Chili Peppers lyrics available at Muzikum

Related Red Hot Chili Peppers Tabs

Funny Face tabs
Slane Castle Jam tabs
Someone tabs
The Uplift Mofo Party Plan Bass tabs
How Strong tabs
Dani California tabs
Blood Sugar Sex Magik tabs
Can't Stop tabs
Rivers Of Avalon (2) tabs
Cmon Girl tabs
The Brothers Cup Bass tabs
If Bass tabs
Blackeye Blonde tabs
Universally Speaking (2) tabs
Scar Tissue Intro tabs
Quixoticelixir tabs
Tear (2) tabs
Taste The Pain tabs
City Of Angels tabs
Dr Funkenstein tabs


Guitar Tabs









All tabs are property and copyright of their owners. All tabs provided for educational purposes only. Privacy Policy, DMCA