Red Hot Chili Peppers

Slane Castle Jam Bass Tabs



More from Red Hot Chili Peppers

Red Hot Chili Peppers Tabs
Red Hot Chili Peppers Chords
Red Hot Chili Peppers Bass
Red Hot Chili Peppers Lyrics



Artist: Red Hot Chili Peppers
Song: Waiting For (Instrumental)
Album: Live at Slane Castle DVD
Instrument: Bass
Tabbed by: Ryan Dewsbury

This is played after By the Way.
G|----------------------------------------------------7-6-----|
D|--------------------------------------------------7-----5---|
A|-9-7-6--555------------x-------555-777-5------5-----------7-|
E|------------888-666---5-6-656------------8---5-6------------|

G|-----------------------------------------------------|
D|---------------------------------------------8-10-12-|
A|-555555-----------x-------55555555-------5-----------|
E|--------666-3333-5-6-656-----------6666-5-6----------|

G|----------------14-12------------------------|
D|-12121212121212-------15---------------------|
A|-------------------------12-1212-13-12-13-12-|
E|---------------------------------------------|

G|----------------14-12----12-14-1515-14-1515-141514-|
D|-12121212121212-------15---------------------------|
A|---------------------------------------------------|
E|---------------------------------------------------|

G|-----------------------------------------------|
D|-12121212121212--------------------------------|
A|----------------12-10----10-12-1212-13--10-8-7-|
E|----------------------13-----------------------|

G|------------------------|
D|------------------------|
A|-555555h7-7-7-6-5-4--x--|
E|--------------------5-6-|


Awesome jam, have fun with it!

Taken from The BassMasta -- http://www.tabs-database.com



Get this song at amazon.com      Ebay     Ringtones Ringtones  


Learn to play: Songwriting, Piano, Harmonica, Guitar
More Red Hot Chili Peppers lyrics available at Muzikum

Related Red Hot Chili Peppers Bass Tabs

Goodbye Hooray bass
Green Heaven bass
By The Way (Version 2) bass
She's Only 18 bass
This Is The Place 100% Perfect bass
Taste The Pain (correct Chorus And Intro) bass
The Brothers Cup bass
Fleas Warm Up bass
No Chump Love Sucker bass
True Men Don't Kill Coyotes bass
Universally Speaking bass
Animal Bar bass
Easiliy bass
Theyre Red Hot bass
Lets Make Evil bass
Grand Pappy Du Plenty bass
Cant Stop bass
Pea (live) bass
Sexamaniac(cant Stop) bass
Wet Sand bass


Guitar Tabs









All tabs are property and copyright of their owners. All tabs provided for educational purposes only. Privacy Policy, DMCA