Red Hot Chili Peppers

Skinny Sweety Man Bass Tabs



More from Red Hot Chili Peppers

Red Hot Chili Peppers Tabs
Red Hot Chili Peppers Chords
Red Hot Chili Peppers Bass
Red Hot Chili Peppers Lyrics



Red hot chili peppers

skinny sweaty man



I'm wondering that the other guys can't hear the right tuning

You Have to tune it down a half step

Play it very fast!!!!!!!!!!!!

verse:

S S P S P S S P S P
Gb-|---------------------0---9--------|
Db-|---------5---5--------------------|
Ab-|---5h7-X---x---5h7-0--------------|
Eb-|-----------------------0----------|

verse (variation):

S S P S P S S S P (And so ON)
Gb-|------------------------9--------|
Db-|---------5---5-------------------|
Ab-|---5h7-X---x---5h7---------------|
Eb-|--------------------x-0----------|

chorus :

Gb-|--7-6-5-4---------------9---|
Db-|-----------5-6-7-8----------|
Ab-|--------------------7-7-----|
Eb-|----------------------------|


Bridge:

Gb-|----------------------------------
Db-|----------------------------------
Ab-|-7-5-7--7-5--------7-5-7----------
Eb-|------------5h7p0--------5h7p5--0-

Gb-|------------------------------7--9-
Db-|------------------------7p5h7--5---
Ab-|-7-5-7--7-5-------7-5-7------------
Eb-|------------5h7p0------------------

Gb-|----------------------------------
Db-|----------------------------------
Ab-|-7-5-7--7-5--------7-5-7----------
Eb-|------------5h7p0--------5h7p5--0-


Please rate it.
Thank you.

Taken from The BassMasta -- http://www.tabs-database.com



Get this song at amazon.com      Ebay     Ringtones Ringtones  


Learn to play: Songwriting, Piano, Harmonica, Guitar
More Red Hot Chili Peppers lyrics available at Muzikum

Related Red Hot Chili Peppers Bass Tabs

Magic Johnson bass
Castle Made Of Sand bass
Can't Stop (easy To Slap) bass
Warm Tape bass
What Is Soul bass
Hump De Bump Bass bass
This Is The Place (100000000000000000000000% Correct) bass
Bullet Proof bass
Lets Make Evil bass
Especially In Michigan bass
Baby Apeal bass
Can't Stop Bass Tab bass
This Is The Place Intro bass
Turn It Again bass
Suck My Kiss bass
Slane Castle Jam 2 bass
Warped bass
Factory Of Faith bass
This Is The Place bass
On Murcury bass


Guitar Tabs









All tabs are property and copyright of their owners. All tabs provided for educational purposes only. Privacy Policy, DMCA